Oops, an error
Loading. Please wait.

Days Before You Came Tab

version 5
version 5

Whole song

Interactive

816 views 3 this week
no commentswrite comment
1 2 3 4 5
please rate
add to favorites
launch autoscroll
font size
0
reset
how to read this tab
guitar tuner
Tab Pro tools
  • play this tab
  • loop segment
  • change instrument
  • show fretboard
  • metronome
×
Best way to learn
"Days Before You Came"
Autoscroll
slow
fast
+/-
esc
set tempo
stop
Contributor
Placebo - Days Before You Came
Standard Placebo Tuning  F A# D# G# C C
                          (Low to high)
         
C |-------------------------------------------------------|
C |-------------------------------------------------------|
G#|5--5-5-5-5-5-5-5-5-5-5-5-5--4--4-4-4-4-4-4-4-4-4-4-4-4-|
D#|-------------------------------------------------------|
A#|-------------------------------------------------------|                
F |-------------------------------------------------------|
                                                                                 Intro/Verse
C |-----------------------------------------------------------------|
C |-----------------------------------------------------------------|
G#|-----------------------------------------------------------------|
D#|7--7-7-7-7-7-7-7-7-7-7-7-7-7-7-5-5-5-5-5-5-5-5-5-5-5-5-10-10-9-9-|
A#|8--8-8-8-8-8-8-8-8-8-8-8-8-8-8-8-8-8-8-8-8-8-8-8-8-8-8--8--8-8-8-|
F |-----------------------------------------------------------------|






C |-----------------------------------------------------------------------|
C |-----------------------------------------------------------------------|
G#|-----------------------------------------------------------------------|
D#|7--7-7-7-7-7-7-7-7-7-7-7-7-7-7-7-7--5--5-5-5-5-5-5-5-5-5-5-5-5-5-5-5-5-|
A#|-----------------------------------------------------------------------|
F |-----------------------------------------------------------------------|
                                                                                    Chorus
C |----------------------------------------------------------------|
C |----------------------------------------------------------------|
G#|----------------------------------------------------------------|
D#|2--2-2-2-2-2-2-----------------2--2-2-2-2-2-2-------------------|
A#|----------------------------------------------------------------|
F |---------------1-1-1-1-1-1/13-------------------1-1-1-1-1-1/10--|








C |x-x-x-x-x-x-x-x-x-x-x-x---------|
C |x-x-x-x-x-x-x-x-x-x-x-x---------|
G#|x-x-x-x-x-x-x-x-x-x-x-x-4-4-5-5-|  Riff 3 (The one that plays before the 
D#|x-x-x-x-x-x-x-x-x-x-x-x-x-x-x-x-|          chorus later in the song and 
A#|x-x-x-x-x-x-x-x-x-x-x-x-2-2-3-3-|         at the end)
F |x-x-x-x-x-x-x-x-x-x-x-x---------|

You can figure out the order, but there's a tab.
Any problems, E-mail me   blink1-8-2@hotmail.co.uk
comments
We did not receive enough feedback on this tab! Please rate:
print report bad tab
1 2 3 4 5
I want to post or [tab]
guest
You may want to rate the tab now too:
select rating
Please do not post tabs as comments. Select "correction" instead!