Oops, an error
Loading. Please wait.

Drag Tab

version 1
version 1

Whole song

Interactive

16,743 views 24 this week
8 commentsread comments
1 2 3 4 5
excellent!
x 16
add to favorites
launch autoscroll
font size
0
reset
how to read this tab
guitar tuner
Autoscroll
slow
fast
+/-
esc
set tempo
stop
Help us to improve Ultimate-Guitar.com Take our survey!
×
Author
----------------------------------------------------------------------------
                             DRAG - Placebo
----------------------------------------------------------------------------
Tabbed by: Stumaster18
Email: ????

Tuning: Standard

I think I was prtety damn accurate in tabbing this song. Definitely my favourite song 
the new CD. Placebo is brilliant. Please rate this tab!

Intro:
e|------------------------------------------------------------------|
B|------------------------------------------------------------------|
G|------------------------------------------------------------------|
D|------------------------------------------------------------------| x2
A|-----6-----4--------------------------4-----3---------------------|
E|-4-4---4-4---4-4-4-4-4-4-4-4-4-4--1-1---1-1---1-1-1-1-1-1-1-1-1-1-|


Verse 1:
e|------------------------------------------------------------------|
B|------------------------------------------------------------------|
G|------------------------------------------------------------------|
D|------------------------------------------------------------------| x3
A|-----6-----4--------------------------4-----3---------------------|
E|-4-4---4-4---4-4-4-4-4-4-4-4-4-4--1-1---1-1---1-1-1-1-1-1-1-1-1-1-|

e|----------------------------------------------------------------|
B|----------------------------------------------------------------|
G|----------------------------------------------------------------|
D|----------------------------------------------------------------|  x1
A|-----6-----4--------------------------4-----3-------------------|
E|-4-4---4-4---4-4-4-4-4-4-4-4-4-4--1-1---1-1---1-(1)-(1)-(1)-(1)-|


Chorus 1:
e|----------------------------------------|
B|----------------------------------------|
G|----------------------------------------|
D|-66666666666-88-666--33333333333-66-333-|  x2
A|-66666666666-66-444--33333333333-44-111-|
E|-44444444444---------11111111111--------|


Verse 2:
e|------------------------------------------------------------------|
B|------------------------------------------------------------------|
G|------------------------------------------------------------------|
D|------------------------------------------------------------------| x3
A|-----6-----4--------------------------4-----3---------------------|
E|-4-4---4-4---4-4-4-4-4-4-4-4-4-4--1-1---1-1---1-1-1-1-1-1-1-1-1-1-|

e|----------------------------------------------------------------|
B|----------------------------------------------------------------|
G|----------------------------------------------------------------|
D|----------------------------------------------------------------|  x1
A|-----6-----4--------------------------4-----3-------------------|
E|-4-4---4-4---4-4-4-4-4-4-4-4-4-4--1-1---1-1---1-(1)-(1)-(1)-(1)-|


Chorus 2:
e|----------------------------------------|
B|----------------------------------------|
G|----------------------------------------|
D|-66666666666-88-666--33333333333-66-333-|  x4
A|-66666666666-66-444--33333333333-44-111-|
E|-44444444444---------11111111111--------|


Interlude: (1:41)
e|---------------------------------------------------------------|
B|---------------------------------------------------------------|
G|---------------------------------------------------------------|
D|-10~-10-8~-10-10-8~-10-10-6----10-10-8~-10-10-8~-10-10-6-------|
A|----------------------------6~---------------------------6~----|
E|------------------------------------------------------------4~-|


Verse 3: No guitar until halfway through (guitar starts at 2:06)
e|------------------------------------------------------------------|
B|------------------------------------------------------------------|
G|------------------------------------------------------------------|
D|------------------------------------------------------------------| x2
A|-----6-----4--------------------------4-----3---------------------|
E|-4-4---4-4---4-4-4-4-4-4-4-4-4-4--1-1---1-1---1-1-1-1-1-1-1-1-1-1-|


Chorus 3:
e|----------------------------------------|
B|----------------------------------------|
G|----------------------------------------|
D|-66666666666-88-666--33333333333-66-333-|  x4
A|-66666666666-66-444--33333333333-44-111-|
E|-44444444444---------11111111111--------|


Outro/Interlude 2:

Guitar 1:
e|---------------------------------------------------------------|
B|---------------------------------------------------------------|
G|---------------------------------------------------------------|
D|-10~-10-8~-10-10-8~-10-10-6----10-10-8~-10-10-8~-10-10-6-------| x4
A|----------------------------6~---------------------------6~----|
E|------------------------------------------------------------4~-|

Guitar 2:
e|------------------------------------|
B|------------------------------------|
G|-8888888888888888--6666666666666666-|
D|-8888888888888888--6666666666666666-| x4
A|-6666666666666666--4444444444444444-|
E|------------------------------------|

Guitar 1:
e|----|
B|----|
G|----|
D|----|
A|----|
E|-4~-|

Guitar 2:
e|----|
B|----|
G|----|
D|-6~-|
A|-6~-|
E|-4~-|

End. Hope you enjoy this!
Suggest correction
What's this?
You can suggest a correction to this tab. Community and Mods will review your correction and vote to approve or reject it.
comments
print report bad tab
8 comments total. Showing first comments.
0 reply
stumaster18 1,576 wrote on June 1 2006, 06:57 am

dammit. I messed up on the first chorus. I forgot to change it. Do not play the chorus like the first one; look at the 2nd and third chorus. thats how I was suggesting to play it.

sorry about that.

0 reply
stumaster18 1,576 wrote on June 1 2006, 07:00 am

OMG. no. play the choruses as it's done on the THIRD CHORUS. I forgot to edit the other two.

0 reply
stumaster18 1,576 wrote on June 1 2006, 07:04 am

nevermind.......It's changed now :)

guest
You may want to rate the tab now too:
select rating
Please do not post tabs as comments. Select "correction" instead!