Oops, an error
Loading. Please wait.

Drag Tab

version 2
version 2

Whole song

Interactive

2,873 views 1 this week
no commentswrite comment
1 2 3 4 5
please rate
add to favorites
launch autoscroll
font size
0
reset
how to read this tab
guitar tuner
Tab Pro tools
  • play this tab
  • loop segment
  • change instrument
  • show fretboard
  • metronome
×
Best way to learn
"Drag"
Autoscroll
slow
fast
+/-
esc
set tempo
stop
Contributor

----------------------------------------------------------------------------
                             DRAG - Placebo
----------------------------------------------------------------------------
Tabbed by:Hurter
Email: hurtingames4fun@hotmail.com

Tuning: Standard

Please rate this tab!!!!

Intro:
e|------------------------------------------------------------------|
B|------------------------------------------------------------------|
G|------------------------------------------------------------------|
D|------------------------------------------------------------------| x2
A|-----7-----5--------------------------4-----2---------------------|
E|-5-5---5-5---5-5-5-5-5-5-5-5-5-5--2-2---2-2---2-2-2-2-2-2-2-2-2-2-|


Verse 1:
e|------------------------------------------------------------------|
B|------------------------------------------------------------------|
G|------------------------------------------------------------------|
D|------------------------------------------------------------------| x2
A|-----7-----5--------------------------4-----2---------------------|
E|-5-5---5-5---5-5-5-5-5-5-5-5-5-5--2-2---2-2---2-2-2-2-2-2-2-2-2-2-|


Chorus 1:
e|-------------------------------------------------|
B|-------------------------------------------------|
G|-------------------------------------------------|
D|-77777777777-12-12--12-12-12--44444444444-99-999-|  x2
A|-77777777777-12-12--12-12-12--44444444444-99-999-|
E|-55555555555-10-10--10-10-10--22222222222-77-777-|


Verse 2:
e|------------------------------------------------------------------|
B|------------------------------------------------------------------|
G|------------------------------------------------------------------|
D|------------------------------------------------------------------| x4
A|-----7-----5--------------------------4-----2---------------------|
E|-5-5---5-5---5-5-5-5-5-5-5-5-5-5--2-2---2-2---2-2-2-2-2-2-2-2-2-2-|

Chorus 2:

e|-------------------------------------------------|
B|-------------------------------------------------|
G|-------------------------------------------------|
D|-77777777777-12-12--12-12-12--44444444444-99-999-|  x2
A|-77777777777-12-12--12-12-12--44444444444-99-999-|
E|-55555555555-10-10--10-10-10--22222222222-77-777-|


Interlude: (1:41)
e|-------------------|----------------------------------------|
B|-5~-5--3~-5--3-----|----------------------------------------|
G|----------------5~-|---x2-----2~----At-The End--------------|
D|-------------------|----------------------------------------|
A|-------------------|----------------------------------------|
E|-------------------|----------------------------------------|


Verse 3: No guitar until halfway through (guitar starts at 2:06)

e|------------------------------------------------------------------|
B|------------------------------------------------------------------|
G|------------------------------------------------------------------|
D|------------------------------------------------------------------| x2
A|-----7-----5--------------------------4-----2---------------------|
E|-5-5---5-5---5-5-5-5-5-5-5-5-5-5--2-2---2-2---2-2-2-2-2-2-2-2-2-2-|


Chorus 3:
e|-------------------------------------------------|
B|-------------------------------------------------|
G|-------------------------------------------------|
D|-77777777777-12-12--12-12-12--44444444444-99-999-|  x4
A|-77777777777-12-12--12-12-12--44444444444-99-999-|
E|-55555555555-10-10--10-10-10--22222222222-77-777-|


Outro/Interlude 2:

Guitar 1:
e|-------------------|----------------------------------------|
B|-5~-5--3~-5--3-----|----------------------------------------|
G|----------------5~-|---x2-----2~----At-The End--------------|
D|-------------------|----------------------------------------|4x
A|-------------------|----------------------------------------|
E|-------------------|----------------------------------------|
Guitar 2:
e|------------------------------------|
B|------------------------------------|
G|-8888888888888888--6666666666666666-|
D|-9999999999999999--7777777777777777-|
A|-9999999999999999--7777777777777777-| x4
E|-7777777777777777--5555555555555555-|

Guitar 1:
e|----|
B|----|
G|-2~-|
D|----|
A|----|
E|----|

Guitar 2:
e|----|
B|----|
G|-8~-|
D|-9~-|
A|-9~-|
E|-7~-|

Placebo Rokcs!!!!!!!!!
comments
We did not receive enough feedback on this tab! Please rate:
print report bad tab
1 2 3 4 5
I want to post or [tab]
guest
You may want to rate the tab now too:
select rating
Please do not post tabs as comments. Select "correction" instead!