Oops, an error
Loading. Please wait.

Drowning By Numbers Bass Tab

version 1
version 1

Whole song

Interactive

1,233 views 1 this week
no commentswrite comment
1 2 3 4 5
please rate
add to favorites
launch autoscroll
font size
0
reset
guitar tuner
Tab Pro tools
  • play this tab
  • loop segment
  • change instrument
  • show fretboard
  • metronome
×
Best way to learn
"Drowning By Numbers"
Autoscroll
slow
fast
+/-
esc
set tempo
stop
Contributor
-------------------------------------------------------------------------------
			     DROWNING BY NUMBERS - Placebo
-------------------------------------------------------------------------------

Tabbed By : Luis Gustavo Hernández Collado
e-mail: ltavo_87@hotmail.com

Tuning:EADG

Intro
G|-----7-----7-----7-----7-|
D|-5-5---5-5---------------| X3
A|-------------6-6---6-6---|
E|-------------------------|

G|-----7-----7-----7-----7/8/7-|
D|-5-5---5-5-------------------|
A|-------------6-6---6-6-------|
E|-----------------------------|

Verse 1
(Open up your heart, let me slip inside...)
G|-----7-----7-----7-----7-|
D|-5-5---5-5---------------| X3
A|-------------6-6---6-6---|
E|-------------------------|

G|-----7-----7-----7-----10-8-7-|
D|-5-5---5-5--------------------|
A|-------------6-6---6-6--------|
E|------------------------------|

Pre-chorus 1
(Try losing, this chromosone...)
G|--------------------|
D|--------------------| X4
A|-55555555-----------|
E|---------3/66666666-|

Verse 2
(Open up your heart, let me slip inside...)
G|-----7-----7-----7-----7-|
D|-5-5---5-5---------------| X3
A|-------------6-6---6-6---|
E|-------------------------|

G|-----7-----7-----7-----10-8-7-|
D|-5-5---5-5--------------------|
A|-------------6-6---6-6--------|
E|------------------------------|

Pre-chorus 2
(Try losing, this chromosone...)
G|--------------------|
D|--------------------| X4
A|-55555555-----------|
E|---------3/66666666-|

Chorus 1
([Blood] Dive in! [Blood] Drowning!...)
G|--------------------|
D|--------------------| X4
A|----------6666/5555-|
E|-3333/6666----------|

Verse 3
G|-----7-----7-----7-----7-|
D|-5-5---5-5---------------| X3
A|-------------6-6---6-6---|
E|-------------------------|

G|-----7-----7-----7-----7/8/7-|
D|-5-5---5-5-------------------|
A|-------------6-6---6-6-------|
E|-----------------------------|

(Open up your heart, let me slip inside...)
G|-----7-----7-----7-----7-|
D|-5-5---5-5---------------| X3
A|-------------6-6---6-6---|
E|-------------------------|

G|-----7-----7-----7-----10-8-7-|
D|-5-5---5-5--------------------|
A|-------------6-6---6-6--------|
E|------------------------------|

Pre-chorus 3
(Try losing, this chromosone...)
G|--------------------|
D|--------------------| X4
A|-55555555-----------|
E|---------3/66666666-|

Chorus 2/Outro
([Blood] Dive in! [Blood] Drowning!...)
G|--------------------|
D|--------------------| X8
A|----------6666/5555-|
E|-3333/6666----------|

G|-8-7r-----------------|
D|-----------------5----|
A|---------5-6r---------|
E|-------------------3r-|
comments
We did not receive enough feedback on this tab! Please rate:
print report bad tab
1 2 3 4 5
I want to post or [tab]
guest
You may want to rate the tab now too:
select rating
Please do not post tabs as comments. Select "correction" instead!