Oops, an error
Loading. Please wait.

Drowning By Numbers Tab

version 1
version 1

Whole song

Interactive

1,045 views 1 this week
no commentswrite comment
1 2 3 4 5
please rate
add to favorites
launch autoscroll
font size
0
reset
how to read this tab
guitar tuner
Tab Pro tools
  • play this tab
  • loop segment
  • change instrument
  • show fretboard
  • metronome
Autoscroll
slow
fast
+/-
esc
set tempo
stop
Contributor
-------------------------------------------------------------------------------
                            Drowning By Numbers - Placebo                      
-------------------------------------------------------------------------------

Tabbed by:Daspop
Email:schep_vreugde_en_leef@hotmail.com

standard placebo tuning: CAPO 1° FRET
(all relative to capo)

intro + verse 1(bass)+
e|-----------------------------------------------------------------------|
B|-----------------------------------------------------------------------|
G|-----------------------------------------------------------------------|
D|-5~----------5~--------------------------------------------------------|
A|-----------------------------------------------------------------------|
E|-----------------------------------------------------------------------|

Chorus
e|-----------------------------------------------------------------------|
B|-----------------------------------------------------------------------|
G|-6-6-6-6-6-6--6-6-6-6-6-6-6--------------------------------------------|
D|-6-6-6-6-6-6--6-6-6-6-6-6-6--------------------------------------------|x4
A|-4-4-4-4-4-4--4-4-4-4-4-4-4--------------------------------------------|
E|--------------5-5-5-5-5-5-5--------------------------------------------|

verse 2
E|-----------------------------------------------------------------------|
B|-----------------------------------------------------------------------|
G|-6-6--9--7--6-6--9--7--6-6--9--7--6-6--9-7-----------------------------|
D|-----------------------------------------------------------------------|
A|-----------------------------------------------------------------------|
E|-----------------------------------------------------------------------|

chorus
bridge("drowning")
e|--------------------------------x-x-x-x--------------------------------|
B|--------------------------------x-x-x-x--------------------------------|
G|-------6-6-6-7-7-7-6-6-6--------x-x-x-x--------------------------------|
D|-4-4-4-6-6-6-7-7-7-6-6-6--------x-x-x-x--------------------------------|x4
A|-4-4-4-4-4-4-5-5-5-4-4-4--------x-x-x-x--------------------------------|
E|-2-2-2--------------------------x-x-x-x--------------------------------|

verse 3
e|-----------------------------------------------------------------------|
B|----------------------7-7-10--8--7-7-10--8-----------------------------|
G|----------------------6-6--9--7--6-6--9--7--6-6--9--7--6-6--9--7-------|
D|-5~--------5~----------------------------------------------------------|
A|-----------------------------------------------------------------------|
E|-----------------------------------------------------------------------|

bridge = outro
end on
e|-----------------------------------------------------------------------|
B|-----------------------------------------------------------------------|
G|-----------------------------------------------------------------------|
D|-6~--------------------------------------------------------------------|
A|-----------------------------------------------------------------------|
E|-----------------------------------------------------------------------|

| ~  vibrato
| x  Mute note

Have fun, it's a cool song, it's a cool band, and a sexy singer (:P)
chears!
===============================================================================
comments
We did not receive enough feedback on this tab! Please rate:
print report bad tab
1 2 3 4 5
I want to post or [tab]
guest
You may want to rate the tab now too:
select rating
Please do not post tabs as comments. Select "correction" instead!