Oops, an error
Loading. Please wait.

English Summer Rain Bass Tab

version 2
version 2

Whole song

Interactive

1,125 views 1 this week
no commentswrite comment
1 2 3 4 5
3 more votes to show rating
add to favorites
launch autoscroll
font size
0
reset
guitar tuner
Autoscroll
slow
fast
+/-
esc
set tempo
stop
Help us to improve Ultimate-Guitar.com Take our survey!
×
G----------------1-3---------------3-1----------1-3-------------------|
D-----------------------------------------------------------------1---|
A-6/1-1-1-1-1-------1-1-1-1-------------------------------------------|
E----------------------------------------2-2-2-2-----2-2-2-2----------|


G----------------1-3---------------3-1----------1-3-------------------|
D-----------------------------------------------------------------1---|
A-6/1-1-1-1-1-------1-1-1-1-------------------------------------------|
E----------------------------------------2-2-2-2-----2-2-2-2----------|


G-----------------1-3-----------3-1----------1-3-------------------|
D--------------------------------------------------------------4---|
A-6/1-1-1-1-1------1-1-1-1-----------------------------------------|
E-------------------------------------2-2-2-2-----2-2-2-2----------|x2


G----------------------------------------------------------------------|
D----------------------------------------------------------------------|
A----------------------------------------------------------------------|
E-4-4-4-4-4-4-4-4-4-4-2-2-2-2-2-2-2-2-2-2-2-2-2-2-2-2------------------|x2
Suggest correction
Give kudos to tab author, rate the tab!
1 2 3 4 5
comments
print report bad tab
guest
You may want to rate the tab now too:
select rating
Wanna post a correction for this tab? Suggest correction