Oops, an error
Loading. Please wait.

Every Me And Every You Bass Tab

version 1
version 1

Whole song

Interactive

11,021 views 12 this week
1 commentread comment
1 2 3 4 5
x 4
add to favorites
launch autoscroll
font size
0
reset
guitar tuner
Autoscroll
slow
fast
+/-
esc
set tempo
stop
Help us to improve Ultimate-Guitar.com Take our survey!
×
Author
-------------------------------------------------------------------------------
			     EVERY YOU, EVERY ME - Placebo
-------------------------------------------------------------------------------

Tabbed By : Luis Gustavo Hernández Collado
e-mail: ltavo_87@hotmail.com

Tuning:EADG

Intro
G|-------------------------------------------------|
D|-0-0-0-0-----------------0-0-0-0-----------------| X2
A|---------1-1-1-1-3-3-3-3---------1-1-1-1---------|
E|-----------------------------------------3-3-3-3-|

Verse 1
(Sucker love is heaven sent, you pucker up our passion's spent...)
G|-------------------------------------------------|
D|-0-0-0-0-----------------0-0-0-0-----------------| X2
A|---------1-1-1-1-3-3-3-3---------1-1-1-1---------|
E|-----------------------------------------3-3-3-3-|

Chorus 1
(Carve your name into my arm, instead of stressed I lie here charmed...)
G|-------------------------|
D|-------------------------|
A|-1-1-1-1-1-1/5-5-5-5-5-5-|
E|-------------------------|

(Every me an every you...)
G|-------------------------|
D|-------------------------|
A|-1-1-1-1-----------------|
E|---------1-1-1-1/5-5-5-5-|

Verse 2
(Sucker love a box I choose, no other box I choose to use...)
G|-------------------------------------------------|
D|-0-0-0-0-----------------0-0-0-0-----------------| X2
A|---------1-1-1-1-3-3-3-3---------1-1-1-1---------|
E|-----------------------------------------3-3-3-3-|

Chorus 2
(In the shape of things to come, too much poison come undone...)
G|-------------------------|
D|-------------------------|
A|-1-1-1-1-1-1/5-5-5-5-5-5-|
E|-------------------------|

(Every me an every you...)
G|-------------------------|
D|-------------------------|X2
A|-1-1-1-1-----------------|
E|---------1-1-1-1/5-5-5-5-|

Verse 3
(Sucker loves is known to swing, prone to cling and waste this things...)
G|-------------------------------------------------|
D|-0-0-0-0-----------------0-0-0-0-----------------| X2
A|---------1-1-1-1-3-3-3-3---------1-1-1-1---------|
E|-----------------------------------------3-3-3-3-|

Chorus 3
(I'll serve my head upon a plate, it's only comfort calling late...)
G|-------------------------|
D|-------------------------|
A|-1-1-1-1-1-1/5-5-5-5-5-5-|
E|-------------------------|

(Every me an every you...)
G|-------------------------|
D|-------------------------|X3
A|-1-1-1-1-----------------|
E|---------1-1-1-1/5-5-5-5-|

Verse 4
(Like the naked leads the blind, I know I'm selfish I'm unkind...)
G|-------------------------------------------------|
D|-0-0-0-0-----------------0-0-0-0-----------------| X2
A|---------1-1-1-1-3-3-3-3---------1-1-1-1---------|
E|-----------------------------------------3-3-3-3-|

Chorus 4/Outro
(All alone in space and time, there's nothing here, but what here's mine...)
G|-------------------------|
D|-------------------------|
A|-1-1-1-1-1-1/5-5-5-5-5-5-|
E|-------------------------|

(Something borrowed, something blue, every me an every you...)
G|-------------------------|
D|-------------------------|X5
A|-1-1-1-1-----------------|
E|---------1-1-1-1/5-5-5-5-|

G|----------------------------|
D|----------------------------|
A|-1-1-1-1--------------------|
E|---------1-1-1-1/5-5-5-5-5r-|
r=let ring
Suggest correction
comments
print report bad tab
1 comment total.
0 reply
MeLa13 10 Dec 19, 2008 03:03 PM

this tab is close... for the chorus its all 8th note chuggung. so its couting 12341234 for the open D. the 1234 for the 1 and 3 A and 3 E.
the chorus is chugging 8th notes too. but its E 6. 1234123412341234. then E1 12341234. THEN E 5 12341234. OKAY!

guest
You may want to rate the tab now too:
select rating
Wanna post a correction for this tab? Suggest correction