Oops, an error
Loading. Please wait.

Every You Every Me Tab

version 1
version 1

Whole song

19,955 views 15 this week
no commentswrite comment
1 2 3 4 5
1 last vote to show rating
add to favorites
launch autoscroll
font size
0
reset
how to read this tab
guitar tuner
Autoscroll
slow
fast
+/-
esc
set tempo
stop
Help us to improve Ultimate-Guitar.com Take our survey!
×
[Intro/Verse]

   +   +   +   +     +   +   +   +     +   +   +   +     +   +   +   +
e|-----------------|-----------------|-----------------|-----------------|
B|-----------------|-----------------|-----------------|-----------------|
G|-6---6---6---6---|-6---6---6---6---|-----------------|-----------------|
D|-6---6---6---6---|-6---6---6---6---|-6---6---6---6---|-7---7---7---7---|
A|-4---4---4---4---|-4---4---4---4---|-4---4---4---4---|-6---6---6---6---|
E|-----------------|-----------------|-5---5---5---5---|-7---7---7---7---|

               Sucker         love           is           heaven      
sent
               Sucker        love,           a      box      I      
choose
               Sucker        love         is      known      to      
swing
               Like         the       naked      leads      the      
blind


   +   +   +   +     +   +   +   +     +   +   +   +     +   +   +   +
e|-----------------|-----------------|-----------------|-----------------|
B|-----------------|-----------------|-----------------|-----------------|
G|-6---6---6---6---|-6---6---6---6---|-6-6-------------|-----------------|
D|-6---6---6---6---|-6---6---6---6---|-6-6-4---4---4---|-4---------------|
A|-4---4---4---4---|-4---4---4---4---|-4-4-4---4---4---|-4---7---7---7--0|
E|-----------------|---------4---4---|-4-4-5---5---5---|-5---5---5---5--0|

               You      pucker      up,     our    passion's        
spent
               No      other      box      I      choose      to      
use
               Prone      to      cling      and   waste    these  
things
               I      know      I'm      selfish,      I'm         
unkind


   +   +   +   +     +   +   +   +     +   +   +   +     +   +   +   +
e|-----------------|-----------------|-----------------|-----------------|
B|-----------------|-----------------|-----------------|-----------------|
G|-6---6---6---6---|-6---6---6---6---|-----------------|-----------------|
D|-6---6---6---6---|-6---6---6---6---|-6---6---6---6---|-7---7---7---7---|
A|-4---4---4---4---|-4---4---4---4---|-4---4---4---4---|-6---6---6---6---|
E|-----------------|-----------------|-5---5---5---5---|-7---7---7---7---|

               My      hearts      a      tart,     your      body's 
rent
               Another           love      I        would           
abuse
               Pucker           up          for      heavens         
sake
               Sucker         love           I      always           
find


   +   +   +   +     +   +   +   +     +   +   +   +     +   +   +   +
e|-----------------|-----------------|-----------------|-----------------|
B|-----------------|-----------------|-----------------|-----------------|
G|-6---6---6---6---|-6---6---6---6---|-6-6-------------|-----------------|
D|-6---6---6---6---|-6---6---6---6---|-6-6-4---4---4---|-4---6---6---6---|
A|-4---4---4---4---|-4---4---4---4---|-4-4-4---4---4---|-4---6---6---6--0|
E|-----------------|---------4---4---|-4-4-5---5---5---|-5---7---7---7--0|

               My      body's      broken,      yours      is       
spent
               No           circumstances          could           
excuse
               There's      never      been      so    much    at   
stake
               Someone      to      bruise      and      leave     
behind


[Chorus]

( Guit.2 )
   +   +   +   +     +   +   +   +     +   +   +   +     +   +   +   +
e|-----------------|-----0---0---0---|-----------------|-----4---4---4---|
B|-----------------|-----0---0---0---|-----------------|-----0---0---0---|
G|-6---6---6---6---|-6---6---6---6---|-6---6---6---6---|-6---6---6---6---|
D|-7---7---7---7---|-7---7---7---7---|-7---7---7---7---|-7---7---7---7---|
A|-7---7---7---7---|-7---7---7---7---|-7---7---7---7---|-7---7---7---7---|
E|-5---5---5---5---|-5---5---5---5---|-5---5---5---5---|-5---5---5---5---|

( Guit.1, begins with second chorus )
   +   +   +   +     +   +   +   +     +   +   +   +     +   +   +   +
e|-----------------|-----------------|-----------------|-----------------|
B|-----------------|-----------------|-----------------|-----------------|
G|-----------------|-----------------|-----------------|-----------------|
D|-----------------|-----------------|-----------------|-----------------|
A|-5---5---5---5---|-5---5---5---5---|-5---5---5---5---|-5---5---5---5---|
E|-5---5---5---5---|-5---5---5---5---|-5---5---5---5---|-5---5---5---5---|
   *   *   *   *     *   *   *   *     *   *   *   *     *   *   *   *
(harmonics)
                    Carve         your         name     into     my     
arm
                    In         the     shape     of      things     to 
come
                    I         serve     my     head     up   on     a 
plate
                    All         alone         in     space     and     
time



   +   +   +   +     +   +   +   +     +   +   +   +     +   +   +   +
e|-----------------|-----0---0---0---|-----------------|-----4---4---4---|
B|-----------------|-----0---0---0---|-----------------|-----0---0---0---|
G|-6---6---6---6---|-6---6---6---6---|-6---6---6---6---|-6---6---6---6---|
D|-6---6---6---6---|-6---6---6---6---|-6---6---6---6---|-6---6---6---6---|
A|-4---4---4---4---|-4---4---4---4---|-4---4---4---4---|-4---4---4---4---|
E|-----------------|-----------------|-----------------|-----------------|

   +   +   +   +     +   +   +   +     +   +   +   +     +   +   +   +
e|-----------------|-----------------|-----------------|-----------------|
B|-----------------|-----------------|-----------------|-----------------|
G|-----------------|-----------------|-----------------|-----------------|
D|-----------------|-----------------|-----------------|-----------------|
A|-9---9---9---9---|-9---9---9---9---|-7---7---7---7---|-7---7---7---7---|
E|-----------------|-----------------|-----------------|-----------------|

                    Instead     of     stressed,     I lie     here 
charmed
                    Too         much         poison         come     
undone
                    It's         only     comfort,         calling     
late
                    There's     nothing     here   but     what here's 
mine



   +   +   +   +     +   +   +   +     +   +   +   +     +   +   +   +
e|-----------------|-----0---0---0---|-----------------|-----4---4---4---|
B|-----------------|-----0---0---0---|-----------------|-----0---0---0---|
G|-6---6---6---6---|-6---6---6---6---|-6---6---6---6---|-6---6---6---6---|
D|-7---7---7---7---|-7---7---7---7---|-7---7---7---7---|-7---7---7---7---|
A|-7---7---7---7---|-7---7---7---7---|-7---7---7---7---|-7---7---7---7---|
E|-5---5---5---5---|-5---5---5---5---|-5---5---5---5---|-5---5---5---5---|

    +   +   +   +     +   +   +   +     +   +   +   +     +   +   +   
+  
e|-----------------|-----------------|-----------------|-----------------|
B|-----------------|-----------------|-----------------|-----------------|
G|-----------------|-----------------|-----------------|-----------------|
D|-----------------|-----------------|-----------------|-----------------|
A|-5---5---5---5---|-5---5---5---5---|-5---5---5---5---|-5---5---5---5---|
E|-5---5---5---5---|-5---5---5---5---|-5---5---5---5---|-5---5---5---5---|
   *   *   *   *     *   *   *   *     *   *   *   *     *   *   *   *

                     'Cause     there's     nothing     else     to     
do
                     'Cause     there's     nothing     else     to     
do
                     'Cause     there's     nothing     else     to     
do
                     Something         borrowed,        something     
blue



   +   +   +   +     +   +   +   +     +   +   +   +     +   +   +   +
e|-4---4---4---4---|-4---4---4---4---|-----------------|-----------------|
B|-4---4---4---4---|-4---4---4---4---|-----------------|-----------------|
G|-4---4---4---4---|-4---4---4---4---|-----------------|-----------------|
D|-6---6---6---6---|-6---6---6---6---|-6---6---6---6---|-6---6---6---6---|
A|-6---6---6---6---|-6---6---6---6---|-6---6---6---6---|-6---6---6---6---|
E|-0---0---0---0---|-0---0---0---0---|-4---4---4---4---|-4---4---4---4---|

   +   +   +   +     +   +   +   +     +   +   +   +     +   +   +   +  
e|-----------------|-----------------|-----------------|-----------------|
B|-----------------|-----------------|-----------------|-----------------|
G|-----------------|-----------------|-----------------|-----------------|
D|-----------------|-----------------|-----------------|-----------------|
A|-3---3---3---3---|-3---3---3---3---|-3---3---3---3---|-3---3---3---3---|
E|-3---3---3---3---|-3---3---3---3---|-3---3---3---3---|-3---3---3---3---|
   *   *   *   *     *   *   *   *     *   *   *   *     *   *   *   *

                     Every         me         and         every         
you
                     Every         me         and         every         
you
                     Every         me         and         every         
you
                     Every         me         and         every         
you

(end for Guit.1 (live))
   +     +     +     +       +     +     +     +       +     +     +     
+       +     +     +     +       
e|-16-16-16-16-16-16-16-16-|-16-16-16-16-16-16-16-16-|-16-16-16-16-16-16-16-16-|-12-12-12-12-12-12-12-12-|
B|-16-16-16-16-16-16-16-16-|-16-16-16-16-16-16-16-16-|-16-16-16-16-16-16-16-16-|-12-12-12-12-12-12-12-12-|
G|-------------------------|-------------------------|-------------------------|-------------------------|
D|-------------------------|-------------------------|-------------------------|-------------------------|
A|-------------------------|-------------------------|-------------------------|-------------------------|
E|-------------------------|-------------------------|-------------------------|-------------------------|

   +   +   +   +     +   +   +   +     +   +   +   +     +   +   +   +  
e|-9-9-9-9-9-9-9-9-|-9-9-9-9-9-9-9-9-|-9-9-9-9-9-9-9-9-|-9-9-9-9-9-9-9-9-|
B|-9-9-9-9-9-9-9-9-|-9-9-9-9-9-9-9-9-|-9-9-9-9-9-9-9-9-|-9-9-9-9-9-9-9-9-|
G|-----------------|-----------------|-----------------|-----------------|
D|-----------------|-----------------|-----------------|-----------------|
A|-----------------|-----------------|-----------------|-----------------|
E|-----------------|-----------------|-----------------|-----------------|


Notes:

- During the first chorus, instead of normal last chord, Guit.2 can 
play

e|-----------------|
B|-----------------|
G|-----------------|
D|-----------------|
A|-5-5-5-5-5-5-5-5-|
E|-0-0-0-0-0-0-0-0-|
   * * * * * * * * (harmonics)


- After 'something borrowed, something blue' part, Guit.1 can play


e|-----------------|-----------------|
B|-----------------|-----------------|
G|-----------------|-----------------|
D|-----------------|-----------------|
A|-6-6-7-7-7-7-7-7-|-7-7-7-7-7-7-7-7-|
E|-0-0-0-0-0-0-0-0-|-0-0-0-0-0-0-0-0-|(...)

 before going back to harmonics

- Just before end riff, Guit.1 can play

e|-9-9-9-9-9-9-9-9-|
B|-9-9-9-9-9-9-9-9-|
G|-----------------|
D|-----------------|
A|-----------------|
E|-----------------|(x8)(it is the end of the album version)

- There isn't harmonics in the album version, and only one guitar and 
a bass.
  (Just the 9-9-9-9-7-7-7-7 riff is added)
  But when they play live, there is no bass: Stefan is guit.2 and 
Brian Guit.1
Suggest correction
Give kudos to tab author, rate the tab!
1 2 3 4 5
comments
print report bad tab
guest
You may want to rate the tab now too:
select rating
Wanna post a correction for this tab? Suggest correction