Oops, an error
Loading. Please wait.

Every You Every Me Tab

version 2
version 2

Whole song

50,971 views 42 this week
6 commentsread comments
1 2 3 4 5
accurate
x 12
add to favorites
launch autoscroll
font size
0
reset
how to read this tab
guitar tuner
Autoscroll
slow
fast
+/-
esc
set tempo
stop
Help us to improve Ultimate-Guitar.com Take our survey!
×
[Verse]

        v v v v v v v vu v v v v v v v
e|-------------------------------------|
B|-------------------------------------|
G|------7-7-7-7-7-7-7-77---------------|
D|------7-7-7-7-7-7-7-77-5-5-5-5-8-8-8-|
A|------5-5-5-5-5-5-5-55-5-5-5-5-7-7-7-|
E|-----------------------6-6-6-6-8-8-8-|
  "Sucker love is heaven sent"


[Chorus]

        v v v v v v v v v v v v v v v v v v v v v v v v v v v v v v v v
e|----------------------------------------------------------------------|
B|----------------------------------------------------------------------|
G|--------------------------------------7-7-7-7-7-7-7-7-7-7-7-7-7-7-7-7-|
D|------8-8-8-8-8-8-8-8-8-8-8-8-8-8-8-8-7-7-7-7-7-7-7-7-7-7-7-7-7-7-7-7-|
A|------8-8-8-8-8-8-8-8-8-8-8-8-8-8-8-8-5-5-5-5-5-5-5-5-5-5-5-5-5-5-5-5-|
E|------6-6-6-6-6-6-6-6-6-6-6-6-6-6-6-6---------------------------------|

        v v v v v v v v v v v v v v v v v v v v v v v v v v v v v v v v
e|----------------------------------------------------------------------|
B|----------------------------------------------------------------------|
G|------------------------------------------------------2-2-2-2-2-2-2-2-|
D|------8-8-8-8-8-8-8-8-8-8-8-8-8-8-8-8-3-3-3-3-3-3-3-3-2-2-2-2-2-2-2-2-|
A|------8-8-8-8-8-8-8-8-8-8-8-8-8-8-8-8-3-3-3-3-3-3-3-3-0-0-0-0-0-0-0-0-|
E|------6-6-6-6-6-6-6-6-6-6-6-6-6-6-6-6-1-1-1-1-1-1-1-1-----------------|
after second chorus do this

   v v v v v v v v v v v v v v v v
e|-----------------------------------------------------------------|
B|-----------------------------------------------------------------|
G|-3-3-3-3-3-3-3-3-3-3-3-3-3-3-3-3-----------------2-2-2-2-2-2-2-2-|
D|-3-3-3-3-3-3-3-3-3-3-3-3-3-3-3-3-3-3-3-3-3-3-3-3-2-2-2-2-2-2-2-2-|
A|-1-1-1-1-1-1-1-1-1-1-1-1-1-1-1-1-3-3-3-3-3-3-3-3-0-0-0-0-0-0-0-0-|
E|---------------------------------1-1-1-1-1-1-1-1-----------------|

and then ad one of them onto every chorus after
e.g 3rd chorus do i twice..... then on the last chorus repeat loads of times
(think its about 7 but just listen to the record)

There is a verse with no chords (just bass) but i ad this in instead of
what ever placebo use

                      BU let ring
e|----------------------------|
B|----------------------------|
G|--------------------9(BU 11-|
D|----------------------------|
A|----------------------------|
E|----------------------------|


************************************

| v   down pick
| u   up pick
| BU  Bend up

************************************
Suggest correction
comments
print report bad tab
6 comments total. Showing first comments.
0 reply
tsb 0 wrote on March 17 2002, 12:00 am

COOL

0 reply
tsb 0 wrote on March 17 2002, 12:00 am

JAMES IS GAY

0 reply
EdMcMan 41 wrote on September 3 2004, 12:00 am

556xxx sounds better as 657xxx (easier to play too)

guest
You may want to rate the tab now too:
select rating
Please do not post tabs as comments. Select "correction" instead!