Oops, an error
Loading. Please wait.

Every You Every Me Tab

version 4
version 4

Whole song

28,579 views 45 this week
3 commentsread comments
1 2 3 4 5
worth learning
x 7
add to favorites
launch autoscroll
font size
0
reset
how to read this tab
guitar tuner
Autoscroll
slow
fast
+/-
esc
set tempo
stop
Help us to improve Ultimate-Guitar.com Take our survey!
×
Author
[Intro/Verse]

e|-----------------------------------------------------------------------|
B|-----------------------------------------------------------------------|
G|----9-9-9-----9-9-9--9-------------------------------------------------|
D|----9-9-9-----9-9-9--9-------------------------------------------------|
A|----7-7-7-----7-7-7--7-------------------------------------------------|
E|--------------8-8-8--9-------------------------------------------------|


[Chorus]

e|--------------------------------------------------------------------|
B|--------------------------------------------------------------------|
G|-3------------------------8----------------------------------3------|
D|-3------------------------8----------------------------------3------|
A|-1------------------------6----------------------------------1------|
E|------------------------------------------------------------------=-|
 Carve your name into my arm, Instead of stressed I lie here charmed

e|--------------------------------------------------------------------|
B|--------------------------------------------------------------------|
G|3-------------------------------------------------8-----------------|
D|3---------------------------3--------8------------8-----------------|
A|1---------------------------3--------8------------6-----------------|
E|----------------------------1--------6------------------------------|
'Cause there's nothing else to do, Every me and every you


[Verse 2]

e|-----------------------------------------------------------------------|
B|-----------------------------------------------------------------------|
G|----9-9-9-----9-9-9--9-------------------------------------------------|
D|----9-9-9-----9-9-9--9-------------------------------------------------|
A|----7-7-7-----7-7-7--7-------------------------------------------------|
E|--------------8-8-8--9-------------------------------------------------|


[Chorus]

e|--------------------------------------------------------------------|
B|--------------------------------------------------------------------|
G|-3------------------------8----------------------------------3------|
D|-3------------------------8----------------------------------3------|
A|-1------------------------6----------------------------------1------|
E|------------------------------------------------------------------=-|
 Carve your name into my arm, Instead of stressed I lie here charmed

e|--------------------------------------------------------------------|
B|--------------------------------------------------------------------|
G|3-------------------------------------------------8-----------------|
D|3---------------------------3--------8------------8-----------------|
A|1---------------------------3--------8------------6-----------------|
E|----------------------------1--------6------------------------------|
'Cause there's nothing else to do, Every me and every you
Suggest correction
comments
print report bad tab
3 comments total.
0 reply
Arnni 422 wrote on September 27 2003, 12:00 am

come to think of it i not sure if this right lol?
i tabbed it when i was learning chord notations, think i got muddle on chrous

0 reply
Spikez_ 10 wrote on May 29 2004, 12:00 am

yeah its a bit out... oh well i prefer standerd tuned tabs so its all good :0)!

0 reply
zic84 10 wrote on October 3 2006, 07:53 am

there is no 6-8-8, but 5-7-7

guest
You may want to rate the tab now too:
select rating
Please do not post tabs as comments. Select "correction" instead!