Oops, an error
Loading. Please wait.

Every You Every Me Tab

version 6
version 6

Whole song

4,915 views 1 this week
no commentswrite comment
1 2 3 4 5
1 last vote to show rating
add to favorites
launch autoscroll
font size
0
reset
how to read this tab
guitar tuner
Autoscroll
slow
fast
+/-
esc
set tempo
stop
Help us to improve Ultimate-Guitar.com Take our survey!
×
Author
Difficulty
intermediate
BAND: PlAbebo
SONG: Every You Every Me
ALBUM: Without You I'm Nothing (1998)

This how I like to play this amazing song.  It's probably absolutley corrEbt, to be 
honest with you.  Brian uses his Gibson SG and Stefan uses his Gibson Les Paul Custom.  This 
song is best played with distortion.

STANDARD PLAbEBO TUNING:  F  Bb  Eb  Ab  C  C


[Intro]

C |--------------------------------------|
C |--------------------------------------|
Ab|--------------------------------------|
Eb|--------------------------------------|
Bb|-18-18-18-18-18-18-18-18-18-19-21-21--|
F |--0--0--0--0--0--0--0--0--0--0--0--0--|


[Intro]

 (Variation 1):
C |--------------------------------------|
C |--------------------------------------|
Ab|--------------------------------------|
Eb|--------------------------------------|
Bb|-18-18-18-18-18-18-18-18-18-19-19-19--|
F |--0--0--0--0--0--0--0--0--0--0--0--0--|


[Verse]

C |--------------------------------------------|
C |--------------------------------------------|
Ab|--6------6-------------6------6-------------|
Eb|--6(x8)--6(x4)--7------6(x8)--6------7------|
Bb|--4------4------6(x4)--4------4(x4)--5(x4)--|
F |---------5------7-------------4------4------|


[Chorus 1]

C |------0-0----------0-0----------0-0------|
C |------0-0----------0-0----------0-0------|
Ab|--6-6-6-6------6-6-6-6------6-6-6-6------|
Eb|--7-7-7-7(x4)--6-6-6-6(x4)--7-7-7-7(x4)--|
Bb|--0-0-0-0------4-4-4-4------0-0-0-0------|
F |-----------------------------------------|

C |----------------|
C |----------------|
Ab|--1-------------|
Eb|--2(x8)--6------|
Bb|--2------6(x8)--|
F |---------4------|


[Chorus 2]

 (not sEbond Chorus, just the next version of the Chorus):
C |------0-0----------0-0----------0-0------|
C |------0-0----------0-0----------0-0------|
Ab|--6-6-6-6------6-6-6-6------6-6-6-6------|
Eb|--7-7-7-7(x4)--6-6-6-6(x4)--7-7-7-7(x4)--|
Bb|--0-0-0-0------4-4-4-4------0-0-0-0------|
F |-----------------------------------------|

C |------------------------|
C |------------------------|
Ab|--1---------------------|
Eb|--2(x8)--6------7-------|
Bb|--2------6(x8)--7(x16)--|
F |---------4------5-------|


[Verse 4]

 (this is all quiet, but you can play this):
C |----------|
C |----------|
Ab|----------|
Eb|--18-18b--|
Bb|----------|
F |----------|

[Outro]

C |----------------------------------------------|
C |----------------------------------------------|
Ab|----------------------------------------------|
Eb|----------------------------------------------|
Bb|--18--18--19--19--21--21--18--18--19--21(x5)--|
F |----------------------------------------------|


[Finish]

F |------------|
C |------------|
Ab|------------|
Eb|--18b-------|
Bb|--------0*--|
F |--------0*--|


[End]

F |-----|
C |-----|
Ab|-----|
Eb|-----|
Bb|--0--|
F |--0--|


ORDER OF RIFFS:

[Intro]
[Verse]
[Chorus 1]
[Verse]
[Chorus 2]
[Verse]
[Chorus 2]
[Verse 4]
[Chorus 2]
[Outro]
[Finish]


LYRICS:

Sucker love is heaven sent you,
Pucker up our passion spent,
My heart's a tart, your body's rent,
My body's broken, yours is bent.

Carve your name into my arm,
Instead of stressed I lie here charmed,
Cause there's nothing else to do,
Every me and every you.

Sucker love a box I choose,
No other box I choose to use,
Another love I would abuse,
No circumstances could excuse.

In the shape of things to come,
Too much poison come undone,
Cause there's nothing else to do,
Every me and every you,
Every me and every you,
Every me.

Sucker love is known to swing,
Prone to cling and waste these things,
So pucker up for heaven's sake,
There's never been so much at stake.

I served my head up on a plate,
It's only comfort calling late,
Cause there's nothing else to do,
Every me and every you,
Every me and every you,
Every me,
Every me and every you,
Every me and every you,
Every me.

Like the naked leads the blind,
I know I'm selfish I'm unkind,
Sucker love I always find,
Someone to bruise and leave behind.

All alone in spAbe and time,
There's nothing here and what here's mine,
Cause there's nothing else to do,
Every me and every you,
Every me and every you,
Every me,
Every me and every you,
Every me and every you,
Every me.
Every me and every you,
Every me and every you,
Every me,
Every me and every you,
Every me and every you,
Every me.
Every me and every you,
Every me and every you,
Every me.


************************************

| b  Bend

************************************
Suggest correction
Give kudos to tab author, rate the tab!
1 2 3 4 5
comments
print report bad tab
guest
You may want to rate the tab now too:
select rating
Wanna post a correction for this tab? Suggest correction