Oops, an error
Loading. Please wait.

Loud Like Love tab

version 1
version 1

Whole song

Interactive

by Placebo
24,903 views 30 this week
2 commentsread comments
1 2 3 4 5
x 11
add to favorites
×
Save as Personal and add changes to this tab that will be seen only by you. Learn more ›
×
You can save this tab as Personal to edit and correct it or add notes. All changes will be seen only by you. Learn more »
launch autoscroll
font size
0
reset
how to read this tab
guitar tuner
backing track
0:00
0:00
edit
Autoscroll
slow
fast
+/-
esc
set tempo
stop
(tune up half a step (F A# D# G# C f), I put a capo on the first fret)

[Intro]
(Guitar 1)
f |-------------------------------------------------------------------------|
C |------0---------0------0---------0------0---------0------0---------0-----|
G#|-----2--------2-------2--------2-------2--------2-------2--------2-------|
D#|----------2-22----2-2----------------------------------------0-00--------|
A#|-3-3-----------------------3-33------------------------------------------|
F |-----------------------------------3-3------3-33----3-3------------------|

(Guitar 2)
(alternates between C# and G# power chords starting on G# at bar 12)

[Verse]
"Love on an atom..."

(Same as intro but Guitar 2 only plays once every four bars)

[Pre-chorus 1]
"For all of our youth..."

(Guitar 1 & 2)
f |-2-2-2-2-2-2-2-3-2-2-2-2-2-2-2-3-0-0-0-0-0-0-0-0-0-0-0-0-0-0-0-0---------|
C |-3-3-3-3-3-3-3-3-3-3-3-3-3-3-3-3-1-1-1-1-1-1-1-1-1-1-1-1-1-1-1-1---------|
G#|-2-2-2-2-2-2-2-2-2-2-2-2-2-2-2-2-0-0-0-0-0-0-0-0-0-0-0-0-0-0-0-0---------|
D#|-0-0-0-0-0-0-0-0-0-0-0-0-0-0-0-0-2-2-2-2-2-2-2-0-2-2-2-2-2-2-2-0---------|
A#|---------------------------------3-3-3-3-3-3-3-3-3-3-3-3-3-3-3-3---------|
F |-------------------------------------------------------------------------|

[Chorus]
"Breath..."
(Guitar 1)
f |-------------------------------------------------------------------------|
C |------0---------0------0---------0------0---------0------0---------0-----|
G#|-----2--------2-------2--------2-------2--------2-------2--------2-------|
D#|----------2-22----2-2----------------------------------------0-00--------|
A#|-3-3-----------------------3-33------------------------------------------|
F |-----------------------------------3-3------3-33----3-3------------------|

[Play verse again]
[Pre-chorus 2]
"For all of our youth..."

(Guitars 1 & 2)
(are the same until bar 16 where guitar 1 plays this)
f |-------------------------------------------------------------------------|
C |-------------------------------------------------------------------------|
G#|------------4---------------------------2--------------------------------|
D#|----------47-7777777777777777---------25-5555555555555555----------------|
A#|-555555557-------------------333333335-----------------------------------|
F |-------------------------------------------------------------------------|

[Chorus/Outro]
"We are loud like love"

(Guitar 2)
(is the same as in the intro. In the loud part, Guitar 1 plays this)
f |-7-----10-7-------7-------7-------7-----8-7-------7-----8-7--------------|
C |----8--------8-------8-------8-------8-------8-------8-------8-----------|
G#|------------------------7------------------------------------------------|
D#|-------------------------------------------------------------------------|
A#|-------------------------------------------------------------------------|
F |-------------------------------------------------------------------------|

            
            
Suggest correction
Creating personal tab
Creating personal tab
You can edit any tab online and save it as your Personal.

You can edit, replace or remove any tab part or add personal notes – all changes will be seen only by you.

Personal tabs can be accessed anytime from any device, even offline.
Learn more »
comments
print report bad tab
2 comments total.
0 reply
Haitch 188 Feb 28, 2014 03:17 AM

Notes on the D string in the Intro/Main Riff are 2nd fret not 3rd fret.
Apart from that, this tab is sweet.

guest
You may want to rate the tab now too:
select rating
Wanna post a correction for this tab? Suggest correction