Oops, an error
Loading. Please wait.

One Of A Kind tab

version 2
version 2

Whole song

Interactive

by Placebo
1,176 views 1 this week
1 commentread comment
1 2 3 4 5
2 more votes to show rating
add to favorites
×
Save as Personal and add changes to this tab that will be seen only by you. Learn more ›
×
You can save this tab as Personal to edit and correct it or add notes. All changes will be seen only by you. Learn more »
launch autoscroll
font size
0
reset
how to read this tab
guitar tuner
edit
Autoscroll
slow
fast
+/-
esc
set tempo
stop
Author
-------------------------------------------------------------------------------
                           One Of A Kind - Placebo
-------------------------------------------------------------------------------
Tabbed by:Matteo Dal Prà
Tuning:Standard

In this song there aren't a lot of guitar part so i've arranged some synth part in a way
you can play with your guitar
(I don't know if this sentence is correct, but you can forgive my mistakes because i'm not
English..)

First Verse: no guitar

Pre-Chorus
e|-----------------------------------------------------------------------------|
B|-----------------------------------------------------------------------------|
G|---10101010101010101010101010------------------------------------------------|
D|----x-x-x-x-x-x-x-x-x-x-x-x-x-x-x--------------------------------------------|
A|----8-8-8-8-8-8-8-8-8-8-8-8-8-8----------------------------------------------|
E|-----------------------------------------------------------------------------|

Chorus [x4]

e|-----------------------------------------------------------------------------|
B|-----------------------------------------------------------------------------|
G|----11111111111111111111111111----10101010101010101010101010-----------------|
D|-----x-x-x-x-x-x-x-x-x-x-x-x-x-x-x----x-x-x-x-x-x-x-x-x-x-x-x-x-x-x----------|
A|----9-9-9-9-9-9-9-9-9-9-9-9-9-9-----8-8-8-8-8-8-8-8-8-8-8-8-8-8--------------|
E|-----------------------------------------------------------------------------|

Second Verse : First Part [x4]

e|----14----14----14----14-----13----13----13----13----------------------------|
B|-------14----14----14----14-----14----14----14----14-------------------------|
G|-----------------------------------------------------------------------------|
D|-----------------------------------------------------------------------------|
A|-----------------------------------------------------------------------------|
E|-----------------------------------------------------------------------------|

Second Verse :Second Part  (not so sure)

e|-----------14---------13---------------------------------------------------------|
B|--------14---------14------------------------------------------------------------|
G|-----15---------15---------------------------------------------------------------|
D|---------------------------------------------------------------------------------|
A|---------------------------------------------------------------------------------|
E|---------------------------------------------------------------------------------|

Pre-Chorus
e|-----------------------------------------------------------------------------|
B|-----------------------------------------------------------------------------|
G|---10101010101010101010101010------------------------------------------------|
D|----x-x-x-x-x-x-x-x-x-x-x-x-x-x-x--------------------------------------------|
A|----8-8-8-8-8-8-8-8-8-8-8-8-8-8----------------------------------------------|
E|-----------------------------------------------------------------------------|

Chorus2 [x4] (very cool part)
You can play the single notes once or with vibrato tecnique(I prefer the second options)

e|-----------------------------------------------------------------------------|
B|-----------------------------------------------------------------------------|
G|-----------------------------------------------------------------------------|
D|-----16-16--15---11----13--13--15-15---11--10-11---13------------------------|
A|-----------------------------------------------------------------------------|
E|-----------------------------------------------------------------------------|

Second Verse : First Part

Chorus 1

Chorus 2

On top of the world you get nothing done!
End

| /  slide up
| \  slide down
| h  hammer-on
| p  pull-off
| ~  vibrato
| +  harmonic
| x  Mute note
===============================================================================

            
            
Suggest correction
Creating personal tab
Creating personal tab
You can edit any tab online and save it as your Personal.

You can edit, replace or remove any tab part or add personal notes – all changes will be seen only by you.

Personal tabs can be accessed anytime from any device, even offline.
Learn more »
Give kudos to tab author, rate the tab!
1 2 3 4 5
comments
print report bad tab
1 comment total.
0 reply
NoiseKraft 10 Jun 28, 2013 11:38 AM

Very nice :)

guest
You may want to rate the tab now too:
select rating
Wanna post a correction for this tab? Suggest correction