Oops, an error
Loading. Please wait.

Peeping Tom bass

version 1
version 1

Whole song

Interactive

by Placebo
682 views 1 this week
no commentswrite comment
1 2 3 4 5
3 more votes to show rating
add to favorites
×
Save as Personal and add changes to this tab that will be seen only by you. Learn more ›
×
You can save this tab as Personal to edit and correct it or add notes. All changes will be seen only by you. Learn more »
launch autoscroll
font size
0
reset
guitar tuner
edit
Autoscroll
slow
fast
+/-
esc
set tempo
stop
I Guess I Tabbed It Right Just some advices i must do about it ^^

intro/ verse

G--------|
D--------|     Hear Careful The Timing Of It
A--------|
E---2----|

Chorus 1 (this chorus you only play it once in the whole song)

G-------------------------------------------------------|
D-------------------------------------------------------|
A------------------------------------------------5-7----|
E-2-22-2-22-2-22-2-22---9/3-7-77-7-77-777-777-77-----2--|
hear carefully the slide to do it at the right moment
verse

Chorus 2 x2 (you play this chorus as long as the song ends)
G----------------------------------------------------------|
D-----------------1111-------------------------------------|
A---------------9----------42---------------------5-7------|
E-2-22-2-2-22-2--------2-----32--77-77-777-77-77-7----2----|
hear carefully the timing of the notes 9, 11's, 2, 4,2,3,2, and the 5,7 to do them at 
right moment

verse
Chorus 2 x2

End

G----------|   check the timing i think it changes a bit
D----------|
A----------|
E---2------|

i have to say that the 2's and 7's on the chorus you can change them to the rithm you
the rithm you hear or whatever just play 2 and 7 ^^
and hear carefully the other notes to put them it into the song
Please Rate ^^

            
            
Suggest correction
Creating personal tab
Creating personal tab
You can edit any tab online and save it as your Personal.

You can edit, replace or remove any tab part or add personal notes – all changes will be seen only by you.

Personal tabs can be accessed anytime from any device, even offline.
Learn more »
Give kudos to tab author, rate the tab!
1 2 3 4 5
comments
print report bad tab
guest
You may want to rate the tab now too:
select rating
Wanna post a correction for this tab? Suggest correction