Oops, an error
Loading. Please wait.

Peeping Tom tab

version 1
version 1

Whole song

Interactive

by Placebo
6,358 views 30 this week
3 commentsread comments
1 2 3 4 5
x 4
add to favorites
×
Save as Personal and add changes to this tab that will be seen only by you. Learn more ›
×
You can save this tab as Personal to edit and correct it or add notes. All changes will be seen only by you. Learn more »
launch autoscroll
font size
0
reset
how to read this tab
guitar tuner
edit
Autoscroll
slow
fast
+/-
esc
set tempo
stop
Difficulty
Placebo

Peeping tom

TABBED BY FELIPE GUERRA

(my english isn’t very good because i speak spanish but i hope you understand)

(the guitar II is the piano)


intro

Guitar I (Stefan)
 e-------------------------------------------------------------------|
b-----------14--14----------14--14---------14--14-----------14—14----|
g--11--11-----------11--11----------11--11----------11--11-----------|
d--------------------------------------------------------------------|
a--------------------------------------------------------------------|
e--------------------------------------------------------------------|

e----------------------------------------------------------------|
b-----------11--11----------11--11---------11--11----------11—11-|
g---10--10----------10--10----------10--10---------10--10--------|
d----------------------------------------------------------------|
a----------------------------------------------------------------|
e----------------------------------------------------------------|


------------------------------------------------------------------------------------

Guitar 1 ( now Star the piano) 00:12

e---------------------------------------------------------------|
b----------14--14----------14--14---------14--14---------14--14-|
g--11--11----------11--11---------11--11----------11--11--------|
d---------------------------------------------------------------|
a---------------------------------------------------------------|
e---------------------------------------------------------------|

Guitar 2(piano) Bryan

e-------------------------------------------------------------|
b----11--9--7-------11--9--7-------11--9--7------11--9--7-----|
g--11-----------11--------------11------------11--------------|
d-------------------------------------------------------------|
a-------------------------------------------------------------|
e-------------------------------------------------------------|

------------------------------------------------------------------------------------


guitar 1
e----------------------------------------------------------------|
b-----------11--11----------11--11---------11--11----------11—11-|
g---10--10----------10--10----------10--10---------10--10--------|
d----------------------------------------------------------------|
a----------------------------------------------------------------|
e----------------------------------------------------------------|

guitar 2 (piano)

e----------------------------------------------------------------|
b---------11--11--------11--11-------11--11--------11—11---------|
g---10--------------10------------10-----------10----------------|
d----------------------------------------------------------------|
a----------------------------------------------------------------|
e----------------------------------------------------------------|


-------------------------------------------------------------------------------------


guitar 1

e---------------------------------------------------------------|
b----------14--14----------14--14---------14--14---------14--14-|
g--11--11----------11--11---------11--11----------11--11--------|
d---------------------------------------------------------------|
a---------------------------------------------------------------|
e---------------------------------------------------------------|

Guitar 2(piano)

e-------------------------------------------------------------|
b----11--9--7-------11--9--7-------11--9--7------11--9--7-----|
g--11-----------11--------------11------------11--------------|
d-------------------------------------------------------------|
a-------------------------------------------------------------|
e-------------------------------------------------------------|

------------------------------------------------------------------------------------




guitar 1
e----------------------------------------------------------------|
b-----------11--11----------11--11---------11--11----------11—11-|
g---10--10----------10--10----------10--10---------10--10--------|
d----------------------------------------------------------------|
a----------------------------------------------------------------|
e----------------------------------------------------------------|

guitar 2 (piano)

e----------------------------------------------------------------|
b---------11--11--------11--11-------11--11--------11—11---------|
g---10--------------10------------10-----------10----------------|
d----------------------------------------------------------------|
a----------------------------------------------------------------|
e----------------------------------------------------------------|


(now brian star to sing

(sorry , I haven’t the letter)

guitar 2(piano) 00:35

e-------------------------------------------------------------|
b----11--9--7-------11--9--7-------11--9--7------11--9--7-----|
g--11-----------11--------------11------------11--------------|
d-------------------------------------------------------------|
a-------------------------------------------------------------|
e-------------------------------------------------------------|

guitar 2 (piano)
e-------------------------------------------------------------------|
b---------11--11--------11--11-------11--11--------11—11------------|
g---10--------------10------------10-----------10-------------------|
d-------------------------------------------------------------------|
a-------------------------------------------------------------------|
e-------------------------------------------------------------------|  x2

------------------------------------------------------------------------------------




(now star the guitar) 00:59

guitar 1

 e--------------------------------------------------------------------|
b-----------14--14----------14--14---------14--14-----------14---14---|
g--11--11-----------11--11----------11--11----------11--11------------|
d---------------------------------------------------------------------|
a---------------------------------------------------------------------|
e---------------------------------------------------------------------|

guitar 2 (piano)

e-------------------------------------------------------------|
b----11--9--7-------11--9--7-------11--9--7------11--9--7-----|
g--11-----------11--------------11------------11--------------|
d-------------------------------------------------------------|
a-------------------------------------------------------------|
e-------------------------------------------------------------|

--------------------------------------------------------------------------------


guitar 1
e----------------------------------------------------------------|
b-----------11--11----------11--11---------11--11----------11—11-|
g---10--10----------10--10----------10--10---------10--10--------|
d----------------------------------------------------------------|
a----------------------------------------------------------------|
e----------------------------------------------------------------|

guitar 2 (piano)
e----------------------------------------------------------------|
b---------11--11--------11--11-------11--11--------11—11---------|
g---10--------------10------------10-----------10----------------|
d----------------------------------------------------------------|
a----------------------------------------------------------------|
e----------------------------------------------------------------|


--------------------------------------------------------------------------------




guitar 1

 e--------------------------------------------------------------------|
b-----------14--14----------14--14---------14--14-----------14---14---|
g--11--11-----------11--11----------11--11----------11--11------------|
d---------------------------------------------------------------------|
a---------------------------------------------------------------------|
e---------------------------------------------------------------------|

guitar 2 (piano)

e-------------------------------------------------------------|
b----11--9--7-------11--9--7-------11--9--7------11--9--7-----|
g--11-----------11--------------11------------11--------------|
d-------------------------------------------------------------|
a-------------------------------------------------------------|
e-------------------------------------------------------------|

--------------------------------------------------------------------------------


guitar 1
e----------------------------------------------------------------|
b-----------11--11----------11--11---------11--11----------11—11-|
g---10--10----------10--10----------10--10---------10--10--------|
d----------------------------------------------------------------|
a----------------------------------------------------------------|
e----------------------------------------------------------------|

guitar 2 (piano)
e----------------------------------------------------------------|
b---------11--11--------11--11-------11--11--------11—11---------|
g---10--------------10------------10-----------10----------------|
d----------------------------------------------------------------|
a----------------------------------------------------------------|
e----------------------------------------------------------------|


--------------------------------------------------------------------------------





chorus  1:20

guitar 2 (piano)
e--------------------------------------------------------------|
b-----------14-----7---11-----------16----7--7-----------------|
g--11--11---------------------11-------------------------------|
d--------------------------------------------------------------|
a--------------------------------------------------------------|
e--------------------------------------------------------------|

-----------------------------------------------------------------------------------

guitar 2 (piano)
e--------------------------------------------------------------|
b-----------14-----7---11-----------16----7--7-----------------|
g--11--11---------------------11-------------------------------|
d--------------------------------------------------------------|
a--------------------------------------------------------------|
e--------------------------------------------------------------|


-----------------------------------------------------------------------------------

(now star the guitar) 1:32

guitar 1
e------------------------------------------------------------------------|
b-------------16--16---------------------11--11--------------------------|
g---------------------------11--11---------------------------------------|
d------------------------------------------------------------------------|
a------------------------------------------------------------------------|
e------------------------------------------------------------------------|

guitar 2 (piano)
e---------------------------------------------------------------|
b-----------14-----7---11-----------16----7--7------------------|
g--11--11---------------------11--------------------------------|
d---------------------------------------------------------------|
a---------------------------------------------------------------|
e---------------------------------------------------------------|

-------------------------------------------------------------------------------------


guitar 1
e------------------------------------------------------------------------|
b-------------16--16---------------------11--11--------------------------|
g---------------------------11--11---------------------------------------|
d------------------------------------------------------------------------|
a------------------------------------------------------------------------|
e------------------------------------------------------------------------|

guitar 2 (piano)
e--------------------------------------------------------------|
b-----------14-----7---11-----------16----7--7-----------------|
g--11--11---------------------11-------------------------------|
d--------------------------------------------------------------|
a--------------------------------------------------------------|
e--------------------------------------------------------------|

------------------------------------------------------------------------------------

verse  1:42

Guitar 1
e---------------------------------------------------------------|
b----------14--14----------14--14---------14--14---------14--14-|
g--11--11----------11--11---------11--11----------11--11--------|
d---------------------------------------------------------------|
a---------------------------------------------------------------|
e---------------------------------------------------------------|

Guitar 2(piano) Bryan

e-------------------------------------------------------------|
b----11--9--7-------11--9--7-------11--9--7------11--9--7-----|
g--11-----------11--------------11------------11--------------|
d-------------------------------------------------------------|
a-------------------------------------------------------------|
e-------------------------------------------------------------|

------------------------------------------------------------------------------




guitar 1
e----------------------------------------------------------------|
b-----------11--11----------11--11---------11--11----------11—11-|
g---10--10----------10--10----------10--10---------10--10--------|
d----------------------------------------------------------------|
a----------------------------------------------------------------|
e----------------------------------------------------------------|

guitar 2 (piano)

e----------------------------------------------------------------|
b---------11--11--------11--11-------11--11--------11—11---------|
g---10--------------10------------10-----------10----------------|
d----------------------------------------------------------------|
a----------------------------------------------------------------|
e----------------------------------------------------------------|


------------------------------------------------------------------------------


Guitar 1
e---------------------------------------------------------------|
b----------14--14----------14--14---------14--14---------14--14-|
g--11--11----------11--11---------11--11----------11--11--------|
d---------------------------------------------------------------|
a---------------------------------------------------------------|
e---------------------------------------------------------------|

Guitar 2(piano) Bryan

e-------------------------------------------------------------|
b----11--9--7-------11--9--7-------11--9--7------11--9--7-----|
g--11-----------11--------------11------------11--------------|
d-------------------------------------------------------------|
a-------------------------------------------------------------|
e-------------------------------------------------------------|

------------------------------------------------------------------------------




guitar 1
e----------------------------------------------------------------|
b-----------11--11----------11--11---------11--11----------11—11-|
g---10--10----------10--10----------10--10---------10--10--------|
d----------------------------------------------------------------|
a----------------------------------------------------------------|
e----------------------------------------------------------------|

guitar 2 (piano)

e----------------------------------------------------------------|
b---------11--11--------11--11-------11--11--------11—11---------|
g---10--------------10------------10-----------10----------------|
d----------------------------------------------------------------|
a----------------------------------------------------------------|
e----------------------------------------------------------------|


-------------------------------------------------------------------------------


Guitar 1  2:06(now the guitar play with effect but i don`t know what is the effect)

e---------------------------------------------------------------|
b----------14--14----------14--14---------14--14---------14--14-|
g--11--11----------11--11---------11--11----------11--11--------|
d---------------------------------------------------------------|
a---------------------------------------------------------------|
e---------------------------------------------------------------|

Guitar 2(piano) Bryan

e-------------------------------------------------------------|
b----11--9--7-------11--9--7-------11--9--7------11--9--7-----|
g--11-----------11--------------11------------11--------------|
d-------------------------------------------------------------|
a-------------------------------------------------------------|
e-------------------------------------------------------------|

------------------------------------------------------------------------------





guitar 1
e----------------------------------------------------------------|
b-----------11--11----------11--11---------11--11----------11—11-|
g---10--10----------10--10----------10--10---------10--10--------|
d----------------------------------------------------------------|
a----------------------------------------------------------------|
e----------------------------------------------------------------|

guitar 2 (piano)

e----------------------------------------------------------------|
b---------11--11--------11--11-------11--11--------11—11---------|
g---10--------------10------------10-----------10----------------|
d----------------------------------------------------------------|
a----------------------------------------------------------------|
e----------------------------------------------------------------|

---------------------------------------------------------------------------------
Guitar 1

e---------------------------------------------------------------|
b----------14--14----------14--14---------14--14---------14--14-|
g--11--11----------11--11---------11--11----------11--11--------|
d---------------------------------------------------------------|
a---------------------------------------------------------------|
e---------------------------------------------------------------|

Guitar 2(piano) Bryan

e-------------------------------------------------------------|
b----11--9--7-------11--9--7-------11--9--7------11--9--7-----|
g--11-----------11--------------11------------11--------------|
d-------------------------------------------------------------|
a-------------------------------------------------------------|
e-------------------------------------------------------------|

------------------------------------------------------------------------------





guitar 1
e----------------------------------------------------------------|
b-----------11--11----------11--11---------11--11----------11—11-|
g---10--10----------10--10----------10--10---------10--10--------|
d----------------------------------------------------------------|
a----------------------------------------------------------------|
e----------------------------------------------------------------|

guitar 2 (piano)

e----------------------------------------------------------------|
b---------11--11--------11--11-------11--11--------11—11---------|
g---10--------------10------------10-----------10----------------|
d----------------------------------------------------------------|
a----------------------------------------------------------------|
e----------------------------------------------------------------|


(and now the chorus, in this chorus you have to repeat a lot and in the original song 
can listen another guitar , this guitar touch something like this)
chorus 2:29

Fm#
guitar 2 (piano)
e--------------------------------------------------------------|
b-----------14-----7---11-----------16----7--7-----------------|
g--11--11---------------------11-------------------------------|
d--------------------------------------------------------------|
a--------------------------------------------------------------|
e--------------------------------------------------------------|

-----------------------------------------------------------------------------------


Fm#7*
guitar 2 (piano)
e--------------------------------------------------------------|
b-----------14-----7---11-----------16----7--7-----------------|
g--11--11---------------------11-------------------------------|
d--------------------------------------------------------------|
a--------------------------------------------------------------|
e--------------------------------------------------------------|


-----------------------------------------------------------------------------------




Fm#
guitar 1
e------------------------------------------------------------------------|
b-------------16--16---------------------11--11--------------------------|
g---------------------------11--11---------------------------------------|
d------------------------------------------------------------------------|
a------------------------------------------------------------------------|
e------------------------------------------------------------------------|

guitar 2 (piano)
e---------------------------------------------------------------|
b-----------14-----7---11-----------16----7--7------------------|
g--11--11---------------------11--------------------------------|
d---------------------------------------------------------------|
a---------------------------------------------------------------|
e---------------------------------------------------------------|

-------------------------------------------------------------------------------------

Fm#7*
guitar 1
e------------------------------------------------------------------------|
b-------------16--16---------------------11--11--------------------------|
g---------------------------11--11---------------------------------------|
d------------------------------------------------------------------------|
a------------------------------------------------------------------------|
e------------------------------------------------------------------------|

guitar 2 (piano)
e--------------------------------------------------------------|
b-----------14-----7---11-----------16----7--7-----------------|
g--11--11---------------------11-------------------------------|
d--------------------------------------------------------------|
a--------------------------------------------------------------|
e--------------------------------------------------------------|

------------------------------------------------------------------------------------

Chords:

Fm#:9-911-11-9-9

Fm#7*:9-9-9-10-11-9

Enjoy the song, and sorry the English, any question to fgt_hey6@hotmail.com

            
            
Suggest correction
Creating personal tab
Creating personal tab
You can edit any tab online and save it as your Personal.

You can edit, replace or remove any tab part or add personal notes – all changes will be seen only by you.

Personal tabs can be accessed anytime from any device, even offline.
Learn more »
comments
print report bad tab
3 comments total.
0 reply
Oniichan 10 Nov 12, 2007 09:40 AM

guitar 1 plays

|----6--6----6--6|----6--6----6--6|----9--9----9--9|----9--9----9--9|
|6--6----6--6----|6--6----6--6----|7--7----7--7
----|7--7----7--7----|
|----------------|----------------|----------------|----------------|
|----------------|-------
---------|----------------|----------------|
|----------------|----------------|----------------|----------------|
|--
--------------|----------------|----------------|----------------|

instead of

e---------------------------------------------------------------|
b----------14--14----------14--14---------14--14---
------14--14-|
g--11--11----------11--11---------11--11----------11--11--------|
d------------------------------------
---------------------------|
a---------------------------------------------------------------|
e----------------------
-----------------------------------------|

0 reply
Oniichan 10 Nov 12, 2007 09:43 AM

oeps i screwed the last one up it should be

|----6--6----6--6|----6--6----6--6|----9--9----9--9|----9--9----9--9|
|6--6----6--6----|6--6----6--6----|7--7----7--7----|7--7----7--7----|
|----------------|----------------|----------------|----------------|
|----------------|----------------|----------------|----------------|
|----------------|----------------|----------------|----------------|
|----------------|----------------|----------------|----------------|

instad of

e----------------------------------------------------------------|
b-----------11--11----------11--11---------11--11----------11—11-|
g---10--10----------10--10----------10--10---------10--10--------|
d----------------------------------------------------------------|
a----------------------------------------------------------------|
e----------------------------------------------------------------|

Peeping Tom Tab by Placebo, www.Ultimate-Guitar.Com

Placebo

Peeping tom

TABBED BY FELIPE GUERRA

(my english isn’t very good because i speak spanish but i hope you understand)

(the guitar II is the piano)


intro

Guitar I (Stefan)
e-------------------------------------------------------------------|
b-----------14--14----------14--14---------14--14-----------14—14----|
g--11--11-----------11--11----------11--11----------11--11-----------|
d--------------------------------------------------------------------|
a--------------------------------------------------------------------|
e--------------------------------------------------------------------|

e----------------------------------------------------------------|
b-----------11--11----------11--11---------11--11----------11—11-|
g---10--10----------10--10----------10--10---------10--10--------|
d----------------------------------------------------------------|
a----------------------------------------------------------------|
e----------------------------------------------------------------|


------------------------------------------------------------------------------------

Guitar 1 ( now Star the piano) 00:12

e---------------------------------------------------------------|
b----------14--14----------14--14---------14--14---------14--14-|
g--11--11----------11--11---------11--11----------11--11--------|
d---------------------------------------------------------------|
a---------------------------------------------------------------|
e---------------------------------------------------------------|

Guitar 2(piano) Bryan

e-------------------------------------------------------------|
b----11--9--7-------11--9--7-------11--9--7------11--9--7-----|
g--11-----------11--------------11------------11--------------|
d-------------------------------------------------------------|
a-------------------------------------------------------------|
e-------------------------------------------------------------|

------------------------------------------------------------------------------------


guitar 1
e----------------------------------------------------------------|
b-----------11--11----------11--11---------11--11----------11—11-|
g---10--10----------10--10----------10--10---------10--10--------|
d----------------------------------------------------------------|
a----------------------------------------------------------------|
e----------------------------------------------------------------|

guitar 2 (piano)

e----------------------------------------------------------------|
b---------11--11--------11--11-------11--11--------11—11---------|
g---10--------------10------------10-----------10----------------|
d----------------------------------------------------------------|
a----------------------------------------------------------------|
e----------------------------------------------------------------|


-------------------------------------------------------------------------------------


guitar 1

e---------------------------------------------------------------|
b----------14--14----------14--14---------14--14---------14--14-|
g--11--11----------11--11---------11--11----------11--11--------|
d---------------------------------------------------------------|
a---------------------------------------------------------------|
e---------------------------------------------------------------|

Guitar 2(piano)

e-------------------------------------------------------------|
b----11--9--7-------11--9--7-------11--9--7------11--9--7-----|
g--11-----------11--------------11------------11--------------|
d-------------------------------------------------------------|
a-------------------------------------------------------------|
e-------------------------------------------------------------|

------------------------------------------------------------------------------------


guitar 1
e----------------------------------------------------------------|
b-----------11--11----------11--11---------11--11----------11—11-|
g---10--10----------10--10----------10--10---------10--

0 reply
Oniichan 10 Nov 12, 2007 09:45 AM

oeps i screwd up again but you get my uidea i hope

guest
Wanna post a correction for this tab? Suggest correction