Oops, an error
Loading. Please wait.

Post Blue bass

version 2
version 2

Whole song

Interactive

by Placebo
1,613 views 1 this week
no commentswrite comment
1 2 3 4 5
1 last vote to show rating
add to favorites
×
Save as Personal and add changes to this tab that will be seen only by you. Learn more ›
×
You can save this tab as Personal to edit and correct it or add notes. All changes will be seen only by you. Learn more »
launch autoscroll
font size
0
reset
guitar tuner
edit
Autoscroll
slow
fast
+/-
esc
set tempo
stop
Author
-------------------------------------------------------------------------------
			     Post Blue - Placebo
-------------------------------------------------------------------------------

Tabbed By : Uber-rocker	 
e-mail: kaigrant_88@hotmail.com

Tuning: Standard - EADG

The bass was a bit hard to hear at times under the layers of guitars/vocals etc, but this 
is what I got - quite simple to play

Strange synth/guitar thingy intro, bass comes in after a few bars of that

INTRO

G|---------------------------------------------------------------------------|
D|---------------------------------------------------------------------------|
A|--------66-666667777444466666666-------------------------------------------|
E|44-444-4-------------------------------------------------------------------|

Verse 1

G|---------------------------------------------------------------------------|
D|---------------------------------------------------------------------------|
A|---------------------------------------------------------------------------|
E|44-444-633-3-3-344-444-633-3-3-344-444-633-3-3-344-444-6-------------------|

Chorus

G|---------------------------------------------------------------------------|
D|---------------------------------------------------------------------------|
A|--------66-666667777444466666666-------------------------------------------|
E|44-444-4-------------------------------------------------------------------|

Verse 2 - almost the same as the first, but changes at the end

G|---------------------------------------------------------------------------|
D|---------------------------------------------------------------------------|
A|---------------------------------------------------------------------------|
E|44-444-633-3-3-344-444-633-3-3-344-444-633-3-3-344-444-633-3-3-3-----------|

Chorus 2

G|---------------------------------------------------------------------------|
D|---------------------------------------------------------------------------|
A|--------66-666667777444466666666---------66-666667777444466666666----------|
E|44-444-4-------------------------44-444-4----------------------------------|

After-chorus part, let ring on the final 6

G|---------------------------------------------------------------------------|
D|---------------------------------------------------------------------------|
A|--------66666666--------66666666-------------------------------------------|
E|44-444-4--------44-444-4---------------------------------------------------|

Then there's a break, just Molko singing with a couple of instruments behind him, no bass

Chorus 3

G|---------------------------------------------------------------------------|
D|---------------------------------------------------------------------------|
A|--------66-666667777444466666666--------66-666667777444466666666-----------|
E|44-444-4------------------------44-444-4-----------------------------------|

OUTRO... let ring on the final 4, again

G|---------------------------------------------------------------------------|
D|---------------------------------------------------------------------------|
A|--------66666666--------66666666--------66666666--------66666666-----------|
E|44-444-4--------44-444-4--------44-444-4--------44-444-4--------4----------|

Outro cont'd.

G|---------------------------------------------------------------------------|
D|---------------------------------------------------------------------------|
A|---------------------------------------------------------------------------|
E|4-44-44--4-44-44--4-44-44--4-44-44-----------------------------------------|			


| /  slide up
| \  slide down
| h  hammer-on
| p  pull-off
| ~  vibrato
| +  harmonic
| x  Mute note
===============================================================================

            
            
Suggest correction
Creating personal tab
Creating personal tab
You can edit any tab online and save it as your Personal.

You can edit, replace or remove any tab part or add personal notes – all changes will be seen only by you.

Personal tabs can be accessed anytime from any device, even offline.
Learn more »
Give kudos to tab author, rate the tab!
1 2 3 4 5
comments
print report bad tab
guest
You may want to rate the tab now too:
select rating
Wanna post a correction for this tab? Suggest correction