Oops, an error
Loading. Please wait.

Special K Tab

version 3
version 3

Interactive

20,386 views 66 this week
no commentswrite comment
1 2 3 4 5
excellent!
x 5
add to favorites
launch autoscroll
font size
0
reset
how to read this tab
guitar tuner
Tab Pro tools
  • play this tab
  • loop segment
  • change instrument
  • show fretboard
  • metronome
Autoscroll
slow
fast
+/-
esc
set tempo
stop
Contributor
-------------------------------------------------------------------------------
                             SPECIAL K - Placebo
-------------------------------------------------------------------------------
Tabbed by:Luis Gustavo Hernández Collado
Email:ltavo_87@hotmail.com

Tuning:DADGBe

Intro
(acoustic)
e|-------------------|
B|-------------------|
G|-10-10-10-10-10-10-| X2
D|-11-11-11-10-10-10-|
A|-8--8--8--8--8--8--|
D|-8--8--8--8--8--8--|

(overdriven)
e|--------------------| 
B|--------------------|
G|-6-6-6-5-6-8-6-5-66-|
D|-4-4-4-4-4-4-4-4-44-| X2
A|-4-4-4-4-4-4-4-4-44-|
D|-4-4-4-4-4-4-4-4-44-|

e|-------------------|
B|-------------------|
G|-10-10-10-10-10-10-| X2
D|-11-11-11-10-10-10-|
A|-8--8--8--8--8--8--|
D|-8--8--8--8--8--8--|

e|--------------------| 
B|--------------------|
G|-6-6-6-5-6-8-6-5-66-|
D|-4-4-4-4-4-4-4-4-44-| X2
A|-4-4-4-4-4-4-4-4-44-|
D|-4-4-4-4-4-4-4-4-44-|

Verse 1
(coming up beyond belief,on this coronary thief...)
e|-------------------|
B|-------------------|
G|-10-10-10-10-10-10-| X2
D|-11-11-11-10-10-10-|
A|-8--8--8--8--8--8--|
D|-8--8--8--8--8--8--|

e|--------------------| 
B|--------------------|
G|-6-6-6-5-6-8-6-5-66-|
D|-4-4-4-4-4-4-4-4-44-| X2
A|-4-4-4-4-4-4-4-4-44-|
D|-4-4-4-4-4-4-4-4-44-|

(...more than just a leitmotif, more chaotic, no relief...)
e|-------------------|
B|-------------------|
G|-10-10-10-10-10-10-| X2
D|-11-11-11-10-10-10-|
A|-8--8--8--8--8--8--|
D|-8--8--8--8--8--8--|

e|--------------------| 
B|--------------------|
G|-6-6-6-5-6-8-6-5-66-|
D|-4-4-4-4-4-4-4-4-44-| X2
A|-4-4-4-4-4-4-4-4-44-|
D|-4-4-4-4-4-4-4-4-44-|

(..I'll describe the way I feel, weeping wounds taht never heal...)
e|-------------------|
B|-------------------|
G|-10-10-10-10-10-10-| X2
D|-11-11-11-10-10-10-|
A|-8--8--8--8--8--8--|
D|-8--8--8--8--8--8--|

e|--------------------| 
B|--------------------|
G|-6-6-6-5-6-8-6-5-66-|
D|-4-4-4-4-4-4-4-4-44-| X2
A|-4-4-4-4-4-4-4-4-44-|
D|-4-4-4-4-4-4-4-4-44-|

(...can this saviour be for real, or are you just my seventh seal?...)
e|-------------------|
B|-------------------|
G|-10-10-10-10-10-10-| X2
D|-11-11-11-10-10-10-|
A|-8--8--8--8--8--8--|
D|-8--8--8--8--8--8--|

e|--------------------| 
B|--------------------|
G|-6-6-6-5-6-8-6-5-66-|
D|-4-4-4-4-4-4-4-4-44-| X2
A|-4-4-4-4-4-4-4-4-44-|
D|-4-4-4-4-4-4-4-4-44-|

Chorus
(No hesitation no delay ...)
e|--------------------------------------------|
B|--------------------------------------------|
G|66666666/88888888/1111111111111111/66666666-|X2
D|66666666/88888888/1111111111111111/66666666-|
A|44444444/66666666/9-9-9-9-9-9-9-9-/44444444-|
D|--------------------------------------------|

[Pause]

(...gravity, no escaping, gravity...)
e|----------------| 
B|----------------|
G|----------------| X2  
D|6-6-6-6---------|
A|4-4-4-4-8-8-8-8-|
D|--------8-8-8-8-|

(...I fall down, hit the ground...)
e|--------------|
B|--------------|
G|--------------| X3
D|-4-44--444333-|
A|-4-44---------|
D|-4-44---------|

(...you seem to come around)
e|---------------| 
B|---------------|
G|---------------|
D|-4-44--444333--|
A|-4-44--------4-|
D|-4-44----------|

Verse 2 
(I'll describe the way i feel, you're my new Achille's heel...)
e|-------------------|
B|-------------------|
G|-10-10-10-10-10-10-| X2
D|-11-11-11-10-10-10-|
A|-8--8--8--8--8--8--|
D|-8--8--8--8--8--8--|

e|--------------------| 
B|--------------------|
G|-6-6-6-5-6-8-6-5-66-|
D|-4-4-4-4-4-4-4-4-44-| X2
A|-4-4-4-4-4-4-4-4-44-|
D|-4-4-4-4-4-4-4-4-44-|

(...can this saviour be for real, or are you just my seventh seal?...)
e|-------------------|
B|-------------------|
G|-10-10-10-10-10-10-| X2
D|-11-11-11-10-10-10-|
A|-8--8--8--8--8--8--|
D|-8--8--8--8--8--8--|

e|--------------------| 
B|--------------------|
G|-6-6-6-5-6-8-6-5-66-|
D|-4-4-4-4-4-4-4-4-44-| X2
A|-4-4-4-4-4-4-4-4-44-|
D|-4-4-4-4-4-4-4-4-44-|

Chorus 2
(No hesitation no delay ...)
e|--------------------------------------------|
B|--------------------------------------------|
G|66666666/88888888/1111111111111111/66666666-|X2
D|66666666/88888888/1111111111111111/66666666-|
A|44444444/66666666/9-9-9-9-9-9-9-9-/44444444-|
D|--------------------------------------------|

(...gravity, no escaping, gravity...)
e|----------------| 
B|----------------|
G|----------------| X2  
D|6-6-6-6---------|
A|4-4-4-4-8-8-8-8-|
D|--------8-8-8-8-|

(...I fall down, hit the ground...)
e|--------------|
B|--------------|
G|--------------| X3
D|-4-44--444333-|
A|-4-44---------|
D|-4-44---------|

(...you seem to come around)
e|---------------| 
B|---------------|
G|---------------|
D|-4-44--444333--|
A|-4-44--------4-|
D|-4-44----------|

Outro
(No escaping, gravity...)
e|----------------| 
B|----------------|
G|----------------| X4  
D|6-6-6-6---------|
A|4-4-4-4-8-8-8-8-|
D|--------8-8-8-8-|

(Gravity...)
e|--------------|
B|--------------|
G|--------------| X3
D|-4-44--444333-|
A|-4-44---------|
D|-4-44---------|

(...Gravity...)
e|----------------| 
B|----------------|
G|----------------|
D|-4-44--444333---|
A|-4-44--------4r-|
D|-4-44-----------|
r=let ring
comments
print report bad tab
I want to post or [tab]
guest
You may want to rate the tab now too:
select rating
Please do not post tabs as comments. Select "correction" instead!