Oops, an error
Loading. Please wait.

Special K tab

version 4
version 4

Interactive

by Placebo
15,259 views 1 this week
no commentswrite comment
1 2 3 4 5
x 8
add to favorites
×
Save as Personal and add changes to this tab that will be seen only by you. Learn more ›
×
You can save this tab as Personal to edit and correct it or add notes. All changes will be seen only by you. Learn more »
launch autoscroll
font size
0
reset
how to read this tab
guitar tuner
backing track
0:00
0:00
edit
Autoscroll
slow
fast
+/-
esc
set tempo
stop
Yeah Hi. This tab is 99.998325% (value not 100% accurate) correct. Any complaints - do 
yourself. This tab is dedicated to me and your sister.


* Let ring

Intro        . . . .            . . .                . syncopate
c |--0-0-000-0-0-0-0-00-0-0-000-0-0-0-00-(0)-------|
C |--0-0-000-0-0-0-0-00-0-0-000-0-0-0-00-(0)-------|
Ab|--9-9-999-9-9-9-9-99-9-9-999-9-9-9-99-(9)-------|
Eb|--9-9-999-9-9-9-9-99-9-9-999-9-9-9-99-(9)-------|
Bb|-*0-----------------*0--------------------------|
F |------------------------------------------------|

Riff 2/verses ('bada ba ba badadadam')
Gtr 1  F5 (high & strum)
Gtr 2
----|----------------------------------------| You can play this on the
----|----------------------------------------| high F5, too.
----|----------------------------------------|
----|----------------------------------------|
-33-|-3-3-3-3-2-3-3-5-x-3-3-2-2-3-3-3--------|
-11-|-1-1-1-1-1-1-1-1-1-1-1-1-1-1-1-1--------| x2

Gtr 1  *
-00-|--0----------------------------------------|
-00-|--0----------------------------------------|
-99-|--9----------------------------------------|
-99-|--9----------------------------------------|
-00-|--0----------------------------------------|
----|-------------------------------------------|

        *               *   *            *            *     *
--00-|--0-------------------------------------------------------|**
--00-|--0----(12-(12)-(12)-----------------(12)-(12)-(12)-------|
--22-|--2------------------(12)----------------------------(12)-|
--22-|--2-------------------------------------------------------|
--00-|--0-------------------------------(7)---------------------|
-----|----------------------------------------------------------|
**(During the 1st verse) don't come in with this part until 'I'll describe the way I feel'.

Prechorus/chorus whatever
Gtr 1
--------------------------------------------|
--------------------------------------------|
--------------------------------------------|
-5555555555555555-77777777-1010101010101010-|
-3333333333333333-55555555-8-8-8-8-8-8-8-8--|
--------------------------------------------|x4

Gtr 2 (Comes in after Gtr 1 riff x2)
------------------------------------------------------------------|
------------------------------------------------------------------|
------------------------------------------------------------------|
---------9-9-9-9/12-12-12-12-------9---77777777-1010101010101010--|
-----------------------------10-10-----55555555-8-8-8-8-8-8-8-8---|
-8-8-8-8----------------------------------------------------------|x2
**12th fret. Not 1 2, obviously.


Little ditty (wah) (After 1st chorus part only)
------------------------------------------------|
------------------------------------------------|
------------------------------------------------|
------------------------------------------------|
------------------------------------------------|
-x\x\x\x\x\x\x\x--------------------------------|

'Gravity...'
Gtr 1
-----------------------000000000000------|
-----------------------000000000000------|
--5-5-55-5-5-55-5-5----222222222222------|
--5-5-55-5-5-55-5-5----222222222222------|
--3-3-33-3-3-33-3-3----000000000000------|
-----------------------------------------|
Gtr 2
-----------------------0-----------------|
-----------------------10----------------|
-----------------------9-----------------| Same rhythm pattern as
-1010------------------9-----------------| Gtr 1
-1010------------------0-etc-------------|
-8-8 etc---------------------------------|

'I fall down..'
Gtr 1                          x3
----------------------------------||----------------|
----------------------------------||----------------|
------------------/101010-x-9-99-.||--1414--1212----|
-10-1010-101010---/x-x-x--x------.||--x-x-----------| Back to 2nd verse.
-8--8-8--8-8-8----/8-8-8--x-7-77--||--1212--1010----|
----------------------------------||----------------|


Gtr 2                           * ring into 2nd verse
-------------------------------------------------|
--------------------------------*----------------|
----------------/101010-x-9-99--9----------------|
-3--3-3--3-3-3--/x-x-x----x-xx--x----------------|
-3--3-3--3-3-3--/8-8-8----7-77--7----------------|
-1--1-1--1-1-1-----------------------------------|x4

End on:
Gtr 1          Gtr 2
  *              *
------------||-------------------||
------------||-------------------||
------------||-------------------||
--2---------||---10--------------||
--3---------||---10--------------||
------------||---8---------------||

The order of the riffs are simple to work out. Ok? All done. :) Would you like a 
Nope? Ok.
Suggest correction
Creating personal tab
Creating personal tab
You can edit any tab online and save it as your Personal.

You can edit, replace or remove any tab part or add personal notes – all changes will be seen only by you.

Personal tabs can be accessed anytime from any device, even offline.
Learn more »
comments
print report bad tab
guest
You may want to rate the tab now too:
select rating
Wanna post a correction for this tab? Suggest correction