Oops, an error
Loading. Please wait.

Taste In Men Tab

version 2
version 2

Whole song

Interactive

1,774 views 6 this week
no commentswrite comment
1 2 3 4 5
accurate
x 3
add to favorites
launch autoscroll
font size
0
reset
how to read this tab
guitar tuner
Tab Pro tools
  • play this tab
  • loop segment
  • change instrument
  • show fretboard
  • metronome
×
Best way to learn
"Taste In Men"
Autoscroll
slow
fast
+/-
esc
set tempo
stop
Contributor
Title: Taste In Men
Artist: placebo
Tabb BY: Daniel "Arnni" Greenwood
Tuneing: Standard
comments: This is an ace song, Got alot of Effects on! Nearly All Placebo Songs
are in a diffrent tuneing, and anyone who seen my placebo tabs knows that i love
to make em into standard Tuneing!. This is Taste in men, im not very sure if its
guitar or a synth or a bass playing the main riff but hear it is. the Verse and
Guitar 2 Is perfect, Guitar 3 64% Sure about and main riff im 80% sure!, so
overALL this tab is 82% Right i think!
any way \m/ROCK\m/

Main Riff

Guitar 1

This Main Riff Is Used Throughout the whole song. Cannot decide whther its a guitar or a synth
   G
e|--------------------------------|
B|--------------------------------|
G|--------------------------------|
D|-----5-----3----5-----3-----5---|
A|--------------------------------|
E|--3------3----3------3-----3----|



Guitar 3(optional)
This Third guitar only comes in really when the feedback and effects 
come into the song(Phaser,flangers,reverbs). You can choose not to add this bit in. 

  A/G#
e|--5----5-----5----5-----5----5------------|
B|--5----5-----5----5-----5----5------------|
G|--6----6-----6----6-----6----6------------|
D|--6----6-----6----6-----6----6------------|
A|------------------------------------------|
E|------------------------------------------|


Guitar 2

verse 1 
 G                             F#
e|-------------------------------------------------------------------------|
B|-------------------------------------------------------------------------|
G|-------------------------------------------------------------------------|
D|-------------------------------------------------------------------------|
A|-/-17-17-17--17--17--17---16--16--16--16--16-16-16-16-16-16-16-----------|
E|-/-15-15-15--15--15--15---14--14--14--14--14-14-14-14-14-14-14-----------| 

           Come back to me a--while      Change your style 
    
e|--------------------------------------------------------------------------|
B|--------------------------------------------------------------------------|
G|--------------------------------------------------------------------------|
D|--------------------------------------------------------------------------|
A|-17-17-17--17--17--17-17-17----16--16--16--16--16-16-16-16-16-16-16-------|
E|-15-15-15--15--15--15-15-15----14--14--14--14--14-14-14-14-14-14-14------| 


     again    Come back to me a    while    Change your taste in

e|--------------------------------------------------------------------------|
B|--------------------------------------------------------------------------|
G|--------------------------------------------------------------------------|
D|--------------------------------------------------------------------------|
A|-17-17-17--17--17--17-17-17-17-17--16--16--16--16--16-16-16-16-16-16-16---|
E|-15-15-15--15--15--15-15-15-15-15--14--14--14--14--14-14-14-14-14-14-14--| 
      
     Men  It's been this way since   Christmas Day     Dazzled doused

e|--------------------------------------------------------------------------|
B|--------------------------------------------------------------------------|
G|--------------------------------------------------------------------------|
D|--------------------------------------------------------------------------|
A|-17-17-17--17--17--17-17-17-17-17--16--16-16--16--16-16-16-16-16-16-16----|
E|-15-15-15--15--15--15-15-15-15-15--14--14-14--14--14-14-14-14-14-14-14---| 

      in gin    Change your taste in  men


Bass interlude 

Guitar 3(optional)

  A/G#
e|--5----5-----5----5-----5----5------------|
B|--5----5-----5----5-----5----5------------|
G|--6----6-----6----6-----6----6------------|
D|--6----6-----6----6-----6----6------------|
A|------------------------------------------|
E|------------------------------------------|


Verse 2

       G                             F#
e|-----------------------------------------------------------------------|
B|-----------------------------------------------------------------------|
G|-----------------------------------------------------------------------|
D|-----------------------------------------------------------------------|
A|-/-17-17-17--17--17--17---16--16--16--16--16-16-16-16-16-16-16---------|
E|-/-15-15-15--15--15--15---14--14--14--14--14-14-14-14-14-14-14---------| 

        Come back to me a--while      Change your style 
    
e|-----------------------------------------------------------------------|
B|-----------------------------------------------------------------------|
G|-----------------------------------------------------------------------|
D|-----------------------------------------------------------------------|
A|-17-17-17--17--17--17-17-17----16--16--16--16--16-16-16-16-16-16-16----|
E|-15-15-15--15--15--15-15-15----14--14--14--14--14-14-14-14-14-14-14----| 


   again    Come back to me a    while    Change your taste in

e|------------------------------------------------------------------------|
B|------------------------------------------------------------------------|
G|------------------------------------------------------------------------|
D|------------------------------------------------------------------------|
A|-17-17-17--17--17--17-17-17-17-17--16--16-16--16--16-16-16-16-16-16-16--|
E|-15-15-15--15--15--15-15-15-15-15--14--14-14--14--14-14-14-14-14-14-14--| 
      
     Men     I'm killing time    on     Valentine's Waiting for the day to

e|-------------------------------------------------------------------------|
B|-------------------------------------------------------------------------|
G|-------------------------------------------------------------------------|
D|-------------------------------------------------------------------------|
A|-17-17-17--17--17--17-17-17-17-17--16--16--16--16--16-16-16-16-16-16-16--|
E|-15-15-15--15--15--15-15-15-15-15--14--14--14--14--14-14-14-14-14-14-14--| 

   end          Change your taste in men 

Middle

e|--------------------------------|
B|--------------------------------|
G|--------------------------------|
D|--------------------------------|
A|------5-----3-----5-----3-----5-|
E|--3------3----3------3-----3----|


  A/G#
e|--5----5-----5----5-----5----5------------|
B|--5----5-----5----5-----5----5------------|
G|--6----6-----6----6-----6----6------------|
D|--6----6-----6----6-----6----6------------|
A|------------------------------------------|
E|------------------------------------------|


e|--------------------------------|
B|--------------------------------|
G|--------------------------------|
D|--------------------------------|
A|------5-----3-----5-----3-----5-|
E|--3------3----3------3-----3----|


verse 3 
 G                             F#
e|----------------------------------------------------------------------|
B|----------------------------------------------------------------------|
G|----------------------------------------------------------------------|
D|----------------------------------------------------------------------|
A|-/-17-17-17--17--17--17---16--16--16--16--16-16-16-16-16-16-16--------|
E|-/-15-15-15--15--15--15---14--14--14--14--14-14-14-14-14-14-14--------| 

           Come back to me a--while      Change your style 
    
e|----------------------------------------------------------------------|
B|----------------------------------------------------------------------|
G|----------------------------------------------------------------------|
D|----------------------------------------------------------------------|
A|-17-17-17--17--17--17-17-17----16--16--16--16--16-16-16-16-16-16-16---|
E|-15-15-15--15--15--15-15-15----14--14--14--14--14-14-14-14-14-14-14---| 


   again    Come back to me a    while    Change your taste in

e|-----------------------------------------------------------------------|
B|-----------------------------------------------------------------------|
G|-----------------------------------------------------------------------|
D|-----------------------------------------------------------------------|
A|-17-17-17--17--17--17-17-17-17-17-16--16--16--16--16-16-16-16-16-16-16-|
E|-15-15-15--15--15--15-15-15-15-15-14--14--14--14--14-14-14-14-14-14-14-| 
      
   Men     It's been this way since  Christmas Day     Dazzled doused

e|--------------------------------------------------------------------------|
B|--------------------------------------------------------------------------|
G|--------------------------------------------------------------------------|
D|--------------------------------------------------------------------------|
A|-17-17-17--17--17--17-17-17-17-17--16--16--16--16--16-16-16-16-16-16-16---|
E|-15-15-15--15--15--15-15-15-15-15--14--14--14--14--14-14-14-14-14-14-14--| 

  in gin       Change your taste in men


Outro

e|--5----5-----5----5-----5----5------------|
B|--5----5-----5----5-----5----5------------|
G|--6----6-----6----6-----6----6------------|
D|--6----6-----6----6-----6----6------------|
A|------------------------------------------|
E|------------------------------------------|

e|--------------------------------|
B|--------------------------------|
G|--------------------------------|
D|--------------------------------|
A|------5-----3-----5-----3-----5-|
E|--3------3----3------3-----3----|

  Change your taste in men...
  Change your taste in men.
  Change your taste in men.....
--
Please Rate!
comments
We did not receive enough feedback on this tab! Please rate:
print report bad tab
1 2 3 4 5
I want to post or [tab]
guest
You may want to rate the tab now too:
select rating
Please do not post tabs as comments. Select "correction" instead!