Oops, an error
Loading. Please wait.
We have an official Teenage Angst tab made by UG professional guitarists. Check out the tab »
×
by Placebo
21,363 views 24 this week
1 commentread comment
1 2 3 4 5
x 12
add to favorites
×
Save as Personal and add changes to this tab that will be seen only by you. Learn more ›
×
You can save this tab as Personal to edit and correct it or add notes. All changes will be seen only by you. Learn more »
launch autoscroll
font size
0
reset
how to read this tab
guitar tuner
edit
Autoscroll
slow
fast
+/-
esc
set tempo
stop
Author
Difficulty
-------------------------------------------------------------------------------
                          Teenage Angst - Placebo
-------------------------------------------------------------------------------
Tabbed by: Becky
Email: becky@getontinter.net

Tuning: F Bb Eb G# C C

-------------------------------------------------------------------------------

[Intro]
C |----------------------------------|----------------------------------|
C |----------------------------------|----------------------------------|
G#|--16-16-16-16-14--14-14-14-14-14--|--16-16-16-16-14--14-14-14-14-14--|
Eb|--14-14-14-14-14--14-14-14-14-14--|--14-14-14-14-14--14-14-14-14-14--|
Bb|---0--0--0--0--0---0--0--0--0--0--|---0--0--0--0--0---0--0--0--0--0--| x2 
F |----------------------------------|----------------------------------|
      V  ^  V  ^  V   ^  V  ^  V  ^      V  ^  V  ^  V   ^  V  ^  V  ^
[Verse]
C |----------------------------------|----------------------------------|
C |----------------------------------|----------------------------------|
G#|--16-16-16-16-14--14-14-14-14-14--|--16-16-16-16-14--14-14-14-14-14--|
Eb|--14-14-14-14-14--14-14-14-14-14--|--14-14-14-14-14--14-14-14-14-14--|
Bb|---0--0--0--0--0---0--0--0--0--0--|---0--0--0--0--0---0--0--0--0--0--| x2 
F |----------------------------------|----------------------------------|
      V  ^  V  ^  V   ^  V  ^  V  ^      V  ^  V  ^  V   ^  V  ^  V  ^
                 Shine the headlight, straight into my eyes,
                 Like the roadkill, I'm paralysed,

C |-------------------------------------------------------------|
C |-------------------------------------------------------------|
G#|--18--18-18-18-16--16-16-16-16---16--18-18-18-18-18-18-18\9--|
Eb|---0---0--0--0--0---0--0--0--0----0---0--0--0--0--0--0--0\7--|
Bb|-------------------------------------------------------------|
F |-------------------------------------------------------------|
      V   ^  V  ^  V   ^  V  ^  V    ^   V  ^  V  ^  V  ^  V
                                You see through my disguise.

C |--------------------------------------------|
C |--0--0-0--0--0--0-0-0--0--0-0--0--0--0-0-0--|
G#|--9--9-9--9--9--9-9-9--9--9-9--9--9--9-9-9--|
Eb|--7--7-7--7--7--7-7-7--7--7-7--7--7--7-7-7--|
Bb|--0--0-0--0--0--0-0-0--0--0-0--0--0--0-0-0--|
F |--------------------------------------------|
     V  ^ V  V  ^  V ^ V  V  ^ V  V  ^  V ^ V

[Verse]
C |----------------------------------|----------------------------------|
C |----------------------------------|----------------------------------|
G#|--16-16-16-16-14--14-14-14-14-14--|--16-16-16-16-14--14-14-14-14-14--|
Eb|--14-14-14-14-14--14-14-14-14-14--|--14-14-14-14-14--14-14-14-14-14--|
Bb|---0--0--0--0--0---0--0--0--0--0--|---0--0--0--0--0---0--0--0--0--0--| x2 
F |----------------------------------|----------------------------------|
      V  ^  V  ^  V   ^  V  ^  V  ^      V  ^  V  ^  V   ^  V  ^  V  ^
                  At the drive-in, double feature,
                  Pull the lever, break the fever,

C |-------------------------------------------------------------|
C |-------------------------------------------------------------|
G#|--18--18-18-18-16--16-16-16-16---16--18-18-18-18-18-18-18\9--|
Eb|---0---0--0--0--0---0--0--0--0----0---0--0--0--0--0--0--0\7--|
Bb|-------------------------------------------------------------|
F |-------------------------------------------------------------|
      V   ^  V  ^  V   ^  V  ^  V    ^   V  ^  V  ^  V  ^  V
                                And say your last goodbyes.

C |--------------------------------------------|
C |--0--0-0--0--0--0-0-0--0--0-0--0--0--0-0-0--|
G#|--9--9-9--9--9--9-9-9--9--9-9--9--9--9-9-9--|
Eb|--7--7-7--7--7--7-7-7--7--7-7--7--7--7-7-7--|
Bb|--0--0-0--0--0--0-0-0--0--0-0--0--0--0-0-0--|
F |--------------------------------------------|
     V  ^ V  V  ^  V ^ V  V  ^ V  V  ^  V ^ V

Chrous
C |--0-0-0-0-0-0-0\0-0-0-0-0-0-0-0--------------------------------------------|
C |--0-0-0-0-0-0-0\0-0-0-0-0-0-0-0--0--0-0--0--0--0-0-0--0--0-0--0--0--0-0-0--|
G#|--6-6-6-6-6-6-6\4-4-4-4-4-4-4-4--9--9-9--9--9--9-9-9--9--9-9--9--9--9-9-9--|
Eb|--4-4-4-4-4-4-4\2-2-2-2-2-2-2-2--7--7-7--7--7--7-7-7--7--7-7--7--7--7-7-7--|
Bb|--0-0-0-0-0-0-0\0-0-0-0-0-0-0-0--0--0-0--0--0--0-0-0--0--0-0--0--0--0-0-0--| x2
F |---------------------------------------------------------------------------| 
     V ^ V ^ V ^ V   V ^ V ^ V ^ V  V  ^ V  V  ^  V ^ V  V  ^ V  V  ^  V ^ V
       Since I was born I started to decay.
       Now nothing ever ever goes my way.

[Verse]
C |----------------------------------|----------------------------------|
C |----------------------------------|----------------------------------|
G#|--16-16-16-16-14--14-14-14-14-14--|--16-16-16-16-14--14-14-14-14-14--|
Eb|--14-14-14-14-14--14-14-14-14-14--|--14-14-14-14-14--14-14-14-14-14--|
Bb|---0--0--0--0--0---0--0--0--0--0--|---0--0--0--0--0---0--0--0--0--0--| x2 
F |----------------------------------|----------------------------------|
      V  ^  V  ^  V   ^  V  ^  V  ^      V  ^  V  ^  V   ^  V  ^  V  ^
                  One fluid gesture, like stepping back in time,
                  Trapped in amber, petrified,

C |-------------------------------------------------------------|
C |-------------------------------------------------------------|
G#|--18--18-18-18-16--16-16-16-16---16--18-18-18-18-18-18-18\9--|
Eb|---0---0--0--0--0---0--0--0--0----0---0--0--0--0--0--0--0\7--|
Bb|-------------------------------------------------------------|
F |-------------------------------------------------------------|
      V   ^  V  ^  V   ^  V  ^  V    ^   V  ^  V  ^  V  ^  V
                                And still not satisfied.

C |--------------------------------------------|
C |--0--0-0--0--0--0-0-0--0--0-0--0--0--0-0-0--|
G#|--9--9-9--9--9--9-9-9--9--9-9--9--9--9-9-9--|
Eb|--7--7-7--7--7--7-7-7--7--7-7--7--7--7-7-7--|
Bb|--0--0-0--0--0--0-0-0--0--0-0--0--0--0-0-0--|
F |--------------------------------------------|
     V  ^ V  V  ^  V ^ V  V  ^ V  V  ^  V ^ V

[Verse]
C |----------------------------------|----------------------------------|
C |----------------------------------|----------------------------------|
G#|--16-16-16-16-14--14-14-14-14-14--|--16-16-16-16-14--14-14-14-14-14--|
Eb|--14-14-14-14-14--14-14-14-14-14--|--14-14-14-14-14--14-14-14-14-14--|
Bb|---0--0--0--0--0---0--0--0--0--0--|---0--0--0--0--0---0--0--0--0--0--| x2 
F |----------------------------------|----------------------------------|
      V  ^  V  ^  V   ^  V  ^  V  ^      V  ^  V  ^  V   ^  V  ^  V  ^
                  Airs and social graces, elocution so divine,
                  I'll stick to my needle, and my favourite waste of time,

C |-------------------------------------------------------------|
C |-------------------------------------------------------------|
G#|--18--18-18-18-16--16-16-16-16---16--18-18-18-18-18-18-18\9--|
Eb|---0---0--0--0--0---0--0--0--0----0---0--0--0--0--0--0--0\7--|
Bb|-------------------------------------------------------------|
F |-------------------------------------------------------------|
      V   ^  V  ^  V   ^  V  ^  V    ^   V  ^  V  ^  V  ^  V
                                Both spineless and sublime.

C |--------------------------------------------|
C |--0--0-0--0--0--0-0-0--0--0-0--0--0--0-0-0--|
G#|--9--9-9--9--9--9-9-9--9--9-9--9--9--9-9-9--|
Eb|--7--7-7--7--7--7-7-7--7--7-7--7--7--7-7-7--|
Bb|--0--0-0--0--0--0-0-0--0--0-0--0--0--0-0-0--|
F |--------------------------------------------|
     V  ^ V  V  ^  V ^ V  V  ^ V  V  ^  V ^ V

Chrous
C |--0-0-0-0-0-0-0\0-0-0-0-0-0-0-0--------------------------------------------| 
C |--0-0-0-0-0-0-0\0-0-0-0-0-0-0-0--0--0-0--0--0--0-0-0--0--0-0--0--0--0-0-0--|
G#|--6-6-6-6-6-6-6\4-4-4-4-4-4-4-4--9--9-9--9--9--9-9-9--9--9-9--9--9--9-9-9--|
Eb|--4-4-4-4-4-4-4\2-2-2-2-2-2-2-2--7--7-7--7--7--7-7-7--7--7-7--7--7--7-7-7--|
Bb|--0-0-0-0-0-0-0\0-0-0-0-0-0-0-0--0--0-0--0--0--0-0-0--0--0-0--0--0--0-0-0--| x2
F |---------------------------------------------------------------------------|
     V ^ V ^ V ^ V   V ^ V ^ V ^ V  V  ^ V  V  ^  V ^ V  V  ^ V  V  ^  V ^ V
       Since I was born I started to decay,
       Now nothing ever - ever goes my way.

[Outro]
C |----------------------------------|----------------------------------|
C |----------------------------------|----------------------------------|
G#|--16-16-16-16-14--14-14-14-14-14--|--16-16-16-16-14--14-14-14-14-14--|
Eb|--14-14-14-14-14--14-14-14-14-14--|--14-14-14-14-14--14-14-14-14-14--|
Bb|---0--0--0--0--0---0--0--0--0--0--|---0--0--0--0--0---0--0--0--0--0--| x2 
F |----------------------------------|----------------------------------|
      V  ^  V  ^  V   ^  V  ^  V  ^      V  ^  V  ^  V   ^  V  ^  V  ^

C |-------------------------------------------------------------|
C |-------------------------------------------------------------|
G#|--18--18-18-18-16--16-16-16-16---16--18-18-18-18-18-18-18\9--|
Eb|---0---0--0--0--0---0--0--0--0----0---0--0--0--0--0--0--0\7--|
Bb|-------------------------------------------------------------|
F |-------------------------------------------------------------|
      V   ^  V  ^  V   ^  V  ^  V    ^   V  ^  V  ^  V  ^  V

C |--------------------------------------------|
C |--0--0-0--0--0--0-0-0--0--0-0--0--0--0-0-0--|
G#|--9--9-9--9--9--9-9-9--9--9-9--9--9--9-9-9--|
Eb|--7--7-7--7--7--7-7-7--7--7-7--7--7--7-7-7--|
Bb|--0--0-0--0--0--0-0-0--0--0-0--0--0--0-0-0--|
F |--------------------------------------------|
     V  ^ V  V  ^  V ^ V  V  ^ V  V  ^  V ^ V

Repeat outro again then;

C |--0-0-0-0-0-0-0\0-0-0-0-0-0-0-0--------------------------------------------|
C |--0-0-0-0-0-0-0\0-0-0-0-0-0-0-0--0--0-0--0--0--0-0-0--0--0-0--0--0--0-0-0--|
G#|--6-6-6-6-6-6-6\4-4-4-4-4-4-4-4--9--9-9--9--9--9-9-9--9--9-9--9--9--9-9-9--|
Eb|--4-4-4-4-4-4-4\2-2-2-2-2-2-2-2--7--7-7--7--7--7-7-7--7--7-7--7--7--7-7-7--|
Bb|--0-0-0-0-0-0-0\0-0-0-0-0-0-0-0--0--0-0--0--0--0-0-0--0--0-0--0--0--0-0-0--| x2
F |---------------------------------------------------------------------------| 
     V ^ V ^ V ^ V   V ^ V ^ V ^ V  V  ^ V  V  ^  V ^ V  V  ^ V  V  ^  V ^ V


************************************

| b  Bend
| \  Slide down

************************************

            
            
Suggest correction
Creating personal tab
Creating personal tab
You can edit any tab online and save it as your Personal.

You can edit, replace or remove any tab part or add personal notes – all changes will be seen only by you.

Personal tabs can be accessed anytime from any device, even offline.
Learn more »
comments
print report bad tab
1 comment total.
0 reply
Gavier 10 Dec 10, 2011 11:11 AM

Great job.

The only thing I would correct is this:
C |------------------------------------------------------------------------|
C |------------------------------------------------------------------------|
G#|--18--18-18-18-16--16-16-16-16---16--18-18-18-18-18-18-18-12-12-12\9--|
Eb|---0---0--0--0--0---0--0--0--0----0---0--0--0--0--0--0--0--0--0--0\7--|
Bb|----------------------------------------------------------------------|
F |------------------------------------------------------------------------|

guest
You may want to rate the tab now too:
select rating
Wanna post a correction for this tab? Suggest correction