Oops, an error
Loading. Please wait.

Twenty Years Tab

version 2
version 2

Whole song

Interactive

18,372 views 15 this week
4 commentsread comments
1 2 3 4 5
excellent!
x 8
add to favorites
launch autoscroll
font size
0
reset
how to read this tab
guitar tuner
Autoscroll
slow
fast
+/-
esc
set tempo
stop
Help us to improve Ultimate-Guitar.com Take our survey!
×
Contributor
TaV0 3,213
-------------------------------------------------------------------------------
                             TWENTY YEARS - Placebo
-------------------------------------------------------------------------------
Tabbed by: Luis Gustavo Hernández Collado
Email:ltavo_87@hotmail.com

Tuning:EADGBe

Intro X2
e|--------------------------------------------------|
B|-----------0-----------0-----------0-----------0--|
G|-------0-----------0-----------0-----------0------|
D|---9-----------9-----------7-----------7----------|
A|-7---7---7---7---7---7---5---5---5---5---5---5----|
E|--------------------------------------------------|

e|--------------------------------------------------|
B|--------------------------------------------------|
G|-------0---0-------0---0-------0-----0-----0------|
D|---5-----------5-----------4-----4-----4-----4----|
A|-3---3---3---3---3---3---2---2-----2-----2-----2--|
E|--------------------------------------------------|

Verse 1 X2
(there are twenty years to go, tewnty ways to know...)
e|--------------------------------------------------|
B|-----------0-----------0-----------0-----------0--|
G|-------0-----------0-----------0-----------0------|
D|---9-----------9-----------7-----------7----------|
A|-7---7---7---7---7---7---5---5---5---5---5---5----|
E|--------------------------------------------------|

e|--------------------------------------------------|
B|--------------------------------------------------|
G|-------0---0-------0---0-------0-----0-----0------|
D|---5-----------5-----------4-----4-----4-----4----|
A|-3---3---3---3---3---3---2---2-----2-----2-----2--|
E|--------------------------------------------------|

Pre chorus
(thems the breaks, for we designer fakes ...)
e|-----------------------------------|
B|-----------------------------------|
G|-----------0-----0-----0-----0-----|
D|-------------4-----4-----4-----4---|
A|-2r------2-----2-----2-----2-----2-|
E|-----------------------------------|
r=let ring

Verse 2 X2
(there are twnety years to go, the faithful and the low...)
e|--------------------------------------------------|
B|-----------0-----------0-----------0-----------0--|
G|-------0-----------0-----------0-----------0------|
D|---9-----------9-----------7-----------7----------|
A|-7---7---7---7---7---7---5---5---5---5---5---5----|
E|--------------------------------------------------|

e|--------------------------------------------------|
B|--------------------------------------------------|
G|-------0---0-------0---0-------0-----0-----0------|
D|---5-----------5-----------4-----4-----4-----4----|
A|-3---3---3---3---3---3---2---2-----2-----2-----2--|
E|--------------------------------------------------|

Pre chorus
(thems the breaks, for we designer fakes ...)
e|-----------------------------------|
B|-----------------------------------|
G|-----------0-----0-----0-----0-----| X2
D|-------------4-----4-----4-----4---|
A|-2r------2-----2-----2-----2-----2-|
E|-----------------------------------|
r=let ring

Verse 3 X2
(there are twnety years to go, a golden age I know...)
e|--------------------------------------------------|
B|-----------0-----------0-----------0-----------0--|
G|-------0-----------0-----------0-----------0------|
D|---9-----------9-----------7-----------7----------|
A|-7---7---7---7---7---7---5---5---5---5---5---5----|
E|--------------------------------------------------|

e|--------------------------------------------------|
B|--------------------------------------------------|
G|-------0---0-------0---0-------0-----0-----0------|
D|---5-----------5-----------4-----4-----4-----4----|
A|-3---3---3---3---3---3---2---2-----2-----2-----2--|
E|--------------------------------------------------|

Pre chorus
(that's the end and that's the start of it, that's the whole and that's the part of it...)
e|-----------------------------------|
B|-----------------------------------|
G|-----------0-----0-----0-----0-----|
D|-------------4-----4-----4-----4---|
A|-2r------2-----2-----2-----2-----2-|
E|-----------------------------------|
r=let ring

e|---------------------------|
B|---------------------------|
G|---0-----0-----0-----0-----| X3
D|-----4-----4-----4-----4---|
A|-2-----2-----2-----2-----2-|
E|---------------------------|

Chorus/Outro
(you're the truht not I...)

Guitar 1 X8
e|--------------------------------------------------|
B|-----------0-----------0-----------0-----------0--|
G|-------0-----------0-----------0-----------0------|
D|---9-----------9-----------7-----------7----------|
A|-7---7---7---7---7---7---5---5---5---5---5---5----|
E|--------------------------------------------------|

e|--------------------------------------------------|
B|--------------------------------------------------|
G|-------0---0-------0---0-------0-----0-----0------|
D|---5-----------5-----------4-----4-----4-----4----|
A|-3---3---3---3---3---3---2---2-----2-----2-----2--|
E|--------------------------------------------------|

Guitar 2 X8
e|-------------------------|
B|-------------------------|
G|-9------7------5------4--|
D|-9------7------5------4--|
A|-7r-----5r-----3r-----2r-|
E|-------------------------|
r= let ring
comments
print report bad tab
4 comments total. Showing first comments.
0 reply
maxgreen 75 wrote on January 2 2007, 11:42 pm

good tab i think it sounds better with a capo on first fret tho.. other than that its great!!!

0 reply
Oniichan 25 wrote on February 21 2007, 09:22 am

i would say capo 2nd fret and place all frets 2 to the left but this sounds good!

0 reply
LuthienMel 27 wrote on August 13 2008, 10:43 am

great. thanks

I want to post or [tab]
guest
You may want to rate the tab now too:
select rating
Please do not post tabs as comments. Select "correction" instead!