Oops, an error
Loading. Please wait.

Without You Im Nothing Tab

version 1
version 1

Album

Whole song

Interactive

27,103 views 9 this week
1 commentread comment
1 2 3 4 5
excellent!
x 6
add to favorites
launch autoscroll
font size
0
reset
how to read this tab
guitar tuner
Autoscroll
slow
fast
+/-
esc
set tempo
stop
Help us to improve Ultimate-Guitar.com Take our survey!
×
    Here is the tab for Placebo's Without you Im Nothing. This is the entire album.
They are an Amazing band so enjoy.













1. Pure Morning



Tuning: standard Placebo tuning: CAPO 1° FRET

Intro
first guitar
e|-------------------------------------------------|
B|-------------------------------------------------|
G|-------------------------------------------------|
D|-x-x-x-x-x-x-x-x-x-x-x-x-x-x-x-x-x-x-x-x-x-x-x-x-|
A|-5-5-5-5-5-5-5-5-5-5-5-5-5-5-5-5-5-5-5-5-5-5-5-5-|
E|-x-x-x-x-x-x-x-x-x-x-x-x-x-x-x-x-x-x-x-x-x-x-x-x-|

second guitar (drops in after a certain time)
e|----------------------------------|
B|---------7------------------------|
G|-----7-----7---7------7---7---7---|
D|---7---7-----7------7---7---7---5-|
A|-5----------------5---------------|
E|----------------------------------|
repeat these guitars during the verse

Chorus
e|-------------------------------------------------------------|
B|-------------------------------------------------------------|
G|-------------------------------------------------------------|
D|-x-x-x-x-x-x-x-x-x-x-x-x-x-x-x-x---x-x-x-x-x-x-x-x-x-x-x-x-x-|
A|-x-x-x-5-5-x-x-5-5-x-5-5-5-9-9-10b-5-5-x-x-5-5-x-5-5-5-2-2-3-|
E|-x-x-x-x-x-x-x-x-x-x-x-x-x-x-x-x---x-x-x-x-x-x-x-x-x-x-x-x-x-|
repeat this a few times

Verse
Chorus
Bridge (guitar stays the same as the one used in the intro)
Verse
Chorus
End On:
e|--------------|
B|--------------|
G|--------------|
D|-x------------|
A|-5-ring-------|
E|-x------------|









2. Brick Shithouse



Intro:

C  -----------------------------------------------
C  -----------------------------------------------
G# -----------------------------------------------
D# --13--12-12-12-----12--------------------------
A# --12--11-11-11--13----13-----------------------Repeat
F  --11--11-11-11---------------------------------(x12) 
** * * *


Note:* Means harmonic, bludgeon/scrape the strings

Verse:

C  -----------------------------------------------
C  -----------------------------------------------
G# -----------------------------------------------
D# -----------------------------------------------
A# --12-12-12-12-12-12-12-13-13-13-13-13-13-------
F  --11-11-11-11-11-11-11-11-11-11-11-11-11------- 


Chorus: ("Now your lover went and put me in the ground...")

C  -----------------------------------------------
C  -----------------------------------------------
G# --14-14-14-14-12-12-12-12-14-14-14-14-15-------
D# -----------------------------------------------
A# -----------------------------------------------(Cont.
F  -----------------------------------------------below)

"I'll be watching, when he's around..." bit:

C  -----------------------------------------------
C  -----------------------------------------------
G# --14-12-10-----------------------7-7-7-7-7-----
D# -----------7-7-7-10-10-10-10-10----------------
A# -----------------------------------------------
F  -----------------------------------------------










3.You Don't Care about Us


Normal Placebo Tuning ( F Bb Eb Ab C C )

Verse:

C  --------------------------------------------------------------
C  --------------------------------------------------------------
G# -----------------------------------11-11-11-11-11-11-11-11-11-
D# -7-7-7-6-7-6----------6-7-6--------11-11-11-11-11-11-11-11-11-
A# -7-7-7-7-7-7-7--7-7-7-7-7-7--------x--x--x--x--x--x--x--x--x--
F  -5-5-5-5-5-5-5--5-5-5-5-5-5---10---10-10-10-10-10-10-10-10-10-Repeat

Chorus:

C  -------------------------------------------------------------
C  -------------------------------------------------------------
G# -10--10-10-10-10-10-10-10-10--11--11-11-11--11-11-11-11-11---
D# -x---x--x--x--x--x--x--x--x---x---x--x--x---x--x--x--x--x----
A# -11--11-11-11-11-11-11-11-11--12--12-12-12--12-12-12-12-12---
F  -9---9--9--9--9--9--9--9--9---10--10-10-10--10-10-10-10-10---

"It's your age..." bit

C  ----------------------------------------------------------------------------
C  ----------------------------------------------------------------------------
G# -13-13-13-13-13-13-13-13-11-11-11-11-11-11-14-14-14-14-13-13-13-13-13-13----
D# -0--0--0--0--0--0--0--0--0--0--0--0--0--0--0--0--0--0--0--0--0--0--0--0-----
A# ----------------------------------------------------------------------------
F  ----------------------------------------------------------------------------X2

Post-bridge:

C  ---------------------------------------------------------
C  ---------------------------------------------------------
G# --------------------13-13-13--13-13--13-13-14-15---------
D# -7-7-7-7-7-7-7-9-7---------------------------------------
A# -0-0-0-0-0-0-0-0-0---------------------------------------
F  --------------------4--4--4---4--4---4--4--5--6----------Repeat X2








4. Ask for Answers

C  -0------0-------0-------
C  -0------0-------0-------
G# -0------0-------0-------
D# -5------5-------5-------
A# -5------5-------3-------
F  -3------3---------------

Verse: Use whammy slightly after/as you strike each chord.

C  --0-----0----0------0----0------0------0-----
C  --0-----0----0------0----0------0------0-----
G# --0-----0----0------0----0------5------0-----
D# --5-----5----5------5----5------5------5-----
A# --5-----3----5------3----5------3------5-----
F  --3----------3-----------3-------------3-----

Chorus (Get through, this night...")

C  -----0--0-0-0--0--------0--0-0-0--0-------0--0-0-0--0----0----
C  -----0--0-0-0--0--------0--0-0-0--0-------0--0-0-0--0----0----
G# -X-X-0--0-0-0--11---X-X-0--0-0-0--11--X-X-0--0-0-0--11---5----
D# -X-X-9--9-9-9--12---X-X-9--9-9-9--12--X-X-9--9-9-9--12---5----
A# -X-X-9--9-9-9--12---X-X-9--9-9-9--12--X-X-9--9-9-9--12---3----
F  -----7--7-7-7--10-------7--7-7-7--10------7--7-7-7--10--------

"These bonds are shackle free..." bit:
When striking the "0" add whammy.

C  -------------------------------------------------------------
C  -------------------------------------------------------------
G# -----0-------0-------0--------0-------0-------0-------0------
D# -------------------------------------------------------------
A# -------------------------------------------------------------
F -5-------3-------5--------3-------5--------3------5-------3--

On the quiet "These bonds are shackle free..." bit, play last verse but do it quietly.

Outro:


C  ---------------------------------------------------------
C  ---------------------------------------------------------
G# -0--0--0--0--0--0--0---0---0--0--0--0--0--0--0--0--------
D# -14-14-14-14-14-14-14--17--17-17-17-17-17-17-17-17-------
A# -15-15-15-15-15-15-15------14-14-14-14-14-14-14-14-------
F  ---------------------------------------------------------

C  ---------------------------------------------------------
C  ---------------------------------------------------------
G# -0--0--0--0--0--0--0--0----0--0--0--0--0--0--0--0--------
D# -14-14-14-14-14-16-16-16---12-12-12-12-12-12-12-12-------
A# -15-15-15-15-15-15-15-15---14-14-14-14-14-14-14-14-------
F  ---------------------------------------------------------









5. Without you I'm nothing


C  -0-0-0-0-0-0--0-0-0--0--0--0--0--0--0--0--0--0---0-0-0---|
C  -0-0-0-0-0-0--0-0-0--0--0--0--0--0--0--0--0--0---0-0-0---|
G# -2-2-2-2-2-2--0-0-0--9--9--9--9--9--9--9--9--9---0-0-0---|
D# -3-3-3-3-3-3--0-0-0--10-10-10-10-10-10-10-10-10--0-0-0---|
A# -0-0-0-0-0-0--0-0-0--0--0--0--0--0--0--0--0--0---0-0-0---|
F  ---------------------------------------------------------|


C  -0-0-0-0-0-0--0-0-0---0-0-0--5-5--------------------|
C  -0-0-0-0-0-0--0-0-0---0-0-0--5-5-0------------------|
G# -2-2-2-2-2-2--0-0-0---2-2-2--5-5-0------------------|
D# -3-3-3-3-3-3--0-0-0---2-2-2--0-0-0------------------|
A# -0-0-0-0-0-0--0-0-0---0-0-0-------------------------|
F  ----------------------------------------------------|

Tick, tock...

C  ---------------------------------------------------------|
C  -------0--0-1-0--------------------0--0-1----------------|
G# -------2--2------------------------2--2------------------|
D# -------2--2------2-2-2-2-2---------2--2-----2-2-2-2-2----|
A# ----0----------------------0---0-----------------------0-| (X 2)
F  ---------------------------------------------------------|

C  ---------------------------------------------------------|
C  -----0-1-1---0-1------0-1-1---0-1---------0-1-1---0-1----|
G# -----2-----2----------2-----2-------------2-----2--------|
D# -----2----------------2------------2-2----2--------------|
A# ----------------------------------------0----------------|
F  -1----------------1--------------------------------------|

I'm unclean, a libertine...

C  -----------------------------------------------|
C  --6-6-6-6-6-6-6-6-6-6-6-6-6-6-6-6--------------|
G# --7-7-7-7-7-7-7-7-7-7-7-7-7-7-7-7--------------|
D# --0-0-0-0-0-0-0-0-0-0-0-0-0-0-0-0--------------|
A# -----------------------------------------------|
F  -----------------------------------------------|
Repeat
C  -----------------------------------------------| (X 2)
C  --1-1-1-1-1-1-1-1-1-1-1-1-1-1-1-1--------------|
G# --2-2-2-2-2-2-2-2-2-2-2-2-2-2-2-2--------------|
D# --2-2-2-2-2-2-2-2-2-2-2-2-2-2-2-2--------------|
A# --0-0-0-0-0-0-0-0-0-0-0-0-0-0-0-0--------------|
F  -----------------------------------------------|


I______take the plan...

C  --10-10-10-10-10-10-10-10-10-10-10-10-10-10-10-14-14-14-14-|
C  --10-10-10-10-10-10-10-10-10-10-10-10-10-10-10-14-14-14-14-|
G# -----------------------------------------------------------|
D# -----------------------------------------------------------|
A# -----------------------------------------------------------|
F  -----------------------------------------------------------|

C  -14-14-14-14-14-14-14-14-15-14-16-16-15-14-12-12-------0----|
C  -14-14-14-14-14-14-14-14-15-14-16-16-15-14-12-12-------0----|
C  -------------------------------------------------------1----|
G# -------------------------------------------------------2----|
D# -------------------------------------------------------2----|
A# --------------------------------------------------0-0-------| Repeat (X 2)
F  ------------------------------------------------------------|


C  -------------------------------------------------------------|
C  -8----------------8-------------------8----------------------|
G# ---10-10-10-10------10--10--10--10------10-10-10-10-10-10----|
D# -------------------------------------------------------------|
A# -------------------------------------------------------------|
F  -------------------------------------------------------------|


C  ---------------------------------------------------------------|
C  -8----------8-------------8------------------------------------|
G# ---9-9-9-9----9--9--9--9-----9-9-9-9---------------------------|
D# ---------------------------------------------------------------|
A# ---------------------------------------------------------------| Repeat
F  ---------------------------------------------------------------|










6.Allergic(to thoughts of mother earth)


Palm Mute

C  ---------------------------------------
C  ---------------------------------------
G# ---------------------------------------
D# ---------------------------------------
A# ---------------------------------------
F  -7-7-7-7-12-12-12-12-5-5-5-5-3-3-3-3---

Note:* Harmonic (Hence the finger held lightly over fret.)

Brian's behind the bridge guitar solo:
C  -0-0-0-0-0-0-0-0-0-0-0-0-0-------------
C  -0-0-0-0-0-0-0-0-0-0-0-0-0-0-----------
G# -0-0-0-0-0-0-0-0-0-0-0-0-0---0---------
D# -0-0-0-0-0-0-0-0-0-0-0-0-0-------------
A# -0-0-0-0-0-0-0-0-0-0-0-0-0-------------
F  -0-0-0-0-0-0-0-0-0-0-0-0-0-------------







7. The Crawl


C  ----------------------------------------------------------------
C  ----------------------------------------------------------------
G# -14-12-10-10-10-10--12-10-9--9-9-9----9----9----9----9----9--9--
Eb -0--0--0--0--0--0---0--0--0--0-0-0----10---10---10---10---10-10-
Bb ------------------------------------0----0----0----0----0-------
F  ----------------------------------------------------------------

"It's way too broke to fix..." bit:


C  ------------------------------------------------
C  ------------------------------------------------
G# -----7---7------7----7-----7---7-9-9---9---9----
Eb -----7---7------7----7-----7---7-7-7---7---7----
Bb -8-8---8----8-8---8-----0----0-------0---0------
F  ------------------------------------------------

"Lay me down, the lie will unfurl..." bit:


C  --------------------------------------------------------------------------
C  --------------------------------------------------------------------------
G# -------12----12-------12----12-----10----10------------------------------7
Eb ----12----12-------12-----------------10-----------12----12----11----11--0
Bb -10-------------10--------10----8------------8/--13---13-----12---12------
F  --------------------------------------------------------------------------

"Lay me down to crawl..." bit:


C  -------------------------------------------
C  -------------------------------------------
G# ---------------------------------------7---
Eb ---------------12----12-----11----11--0----
Bb -------8/--13-----13-----12-----12---------
F  -------------------------------------------









8. Every Me and Every You



Verse/Intro:

C  --------------------------------------------------------------------------
C  --------------------------------------------------------------------------
G# -6-6-6-6-6-6-6-6--6-6-6-6--8-8-8-8--6-6-6-6-6-6-6-6-6-6-6-----------------
D# -6-6-6-6-6-6-6-6--6-6-6-6--7-7-7-7--6-6-6-6-6-6-6-6-6-6-6-7-7-7-7-6-6-6-6-
A# -4-4-4-4-4-4-4-4--4-4-4-4--6-6-6-6--4-4-4-4-4-4-4-4-4-4-4-4-4-4-4-4-4-4-4-
F  ------------------5-5-5-5--7-7-7-7------------------4-4-4-5-5-5-5-5-5-5-5-

Pre-chorus/chorus (Stefan's part):

C  ---------0-0-------------0-0-------------0-0---------------0-0-0-
C  ---------0-0-------------0-0-------------0-0---------------0-0-0-
G# -6-6-6-6-6-6-6-6-6-6-6-6-6-6-6-6-6-6-6-6-6-6-6-6-6-6-6-6-6-6-6-6-
D# -7-7-7-7-7-7-7-7-7-7-7-7-7-7-7-7-6-6-6-6-6-6-6-6-6-6-6-6-6-6-6-6-
A# -0-0-0-0-0-0-0-0-0-0-0-0-0-0-0-0-4-4-4-4-4-4-4-4-4-4-4-4-4-4-4-4-
F  -----------------------------------------------------------------

C  ---------0-0-0-------------0-0-0-0-0-0-0-0-0-0-0-----------0-0-0-
C  ---------0-0-0-------------0-0-0-0-0-0-0-0-0-0-0-----------0-0-0-
G# -6-6-6-6-6-6-6-6-6-6-6-6-6-6-6-6-6-6-6-6-6-6-6-6-6-6-6-6-6-6-6-6-
D# -7-7-7-7-7-7-7-7-7-7-7-7-7-7-7-7-7-7-7-7-7-7-7-7-7-7-7-7-7-7-7-7-
A# -7-7-7-7-7-7-7-7-7-7-7-7-7-7-7-7-7-7-7-7-7-7-7-7-7-7-7-7-7-7-7-7-
F  -5-5-5-5-5-5-5-5-5-5-5-5-5-5-5-5-0-0-0-0-0-0-0-0-4-4-4-4-4-4-4-4-

Pre-chorus/chorus (Brian's part):

C  -------------------------------------------------------------------------------------
C  -------------------------------------------------------------------------------------
G# -------------------------------------------------------------------------------------
Eb -------------------------------------------------------------------------------------
Bb -<1>-<1>-<1>-<1>-<1>-<1>-<1>-<1>-<1>-<1>-<1>-<1>-<1>-10-10-10-10-10-10-8-8-8-8-8-8-8-
F  -------------------------------------------------------------------------------------

C  -----------------------------------------------------------------------------------------
C  -----------------------------------------------------------------------------------------
G# -----------------------------------------------------------------------------------------
Eb -----------------------------------------------------------------------------------------
Bb -<1>-<1>-<1>-<1>-<1>-<1>-<1>-<1>-<1>-<1>-<1>-<1>-<1>-<1>---------------------------------
F  -------------------------------------------------------<2>-<2>-<2>-<2>-<2>-<2>-<7>-<7>-<7>

Outro (Brian)
Played on live version:

C  -------------------------------------------------------------------------------
C  -------------------------------------------------------------------------------
G# -15-15-15-15-15-15--15-15-15-13-13-13-13-13-13-15-15-15-15-15-13-13-13-13-13---
Eb -12-12-12-12-12-12--12-12-12-12-12-12-12-12-12-12-12-12-12-12-12-12-12-12-12---
Bb -0--0--0--0--0--0---0--0--0--0--0--0--0--0--0--0--0--0--0--0--0--0--0--0--0----
F  -------------------------------------------------------------------------------

Last chorus (2:32) fill with tremolo effect:

C -0---0- 
C -0---0- 
G# -4---4-
D# -------
A# -------
F -------

Weird keyboard part, near end:

C -16---12----16--12--------------19--16--12--------
C -16---12----16--12--------------19--16--12--------
G# --------------------11--13-11-13------------------
Eb --------------------------------------------------
Bb --------------------------------------------------
F --------------------------------------------------


Alternate Version
Transcribed by Alexandre Viano (aelx@multimania.com)

Tuning : Placebo ( F Bb Eb Ab C C )
(Tab for two guitars)

--------------------------------------------------------------------

Intro/Verse ( Guitar 2 )

+ + + + + + + + + + + + + + + +
e:-----------------|-----------------|-----------------|-----------------|
B:-----------------|-----------------|-----------------|-----------------|
G:-6---6---6---6---|-6---6---6---6---|-----------------|-----------------|
D:-6---6---6---6---|-6---6---6---6---|-6---6---6---6---|-7---7---7---7---|
A:-4---4---4---4---|-4---4---4---4---|-4---4---4---4---|-6---6---6---6---|
E:-----------------|-----------------|-5---5---5---5---|-7---7---7---7---|

Sucker love is heaven sent
Sucker love, a box I choose
Sucker love is known to swing
Like the naked leads the blind


+ + + + + + + + + + + + + + + +
e:-----------------|-----------------|-----------------|-----------------|
B:-----------------|-----------------|-----------------|-----------------|
G:-6---6---6---6---|-6---6---6---6---|-6-6-------------|-----------------|
D:-6---6---6---6---|-6---6---6---6---|-6-6-4---4---4---|-4---------------|
A:-4---4---4---4---|-4---4---4---4---|-4-4-4---4---4---|-4---7---7---7--0|
E:-----------------|---------4---4---|-4-4-5---5---5---|-5---5---5---5--0|

You pucker up, our passion's spent
No other box I choose to use
Prone to cling and waste these things
I know I'm selfish, I'm unkind


+ + + + + + + + + + + + + + + +
e:-----------------|-----------------|-----------------|-----------------|
B:-----------------|-----------------|-----------------|-----------------|
G:-6---6---6---6---|-6---6---6---6---|-----------------|-----------------|
D:-6---6---6---6---|-6---6---6---6---|-6---6---6---6---|-7---7---7---7---|
A:-4---4---4---4---|-4---4---4---4---|-4---4---4---4---|-6---6---6---6---|
E:-----------------|-----------------|-5---5---5---5---|-7---7---7---7---|

My hearts a tart, your body's rent
Another love I would abuse
Pucker up for heavens sake
Sucker love I always find


+ + + + + + + + + + + + + + + +
e:-----------------|-----------------|-----------------|-----------------|
B:-----------------|-----------------|-----------------|-----------------|
G:-6---6---6---6---|-6---6---6---6---|-6-6-------------|-----------------|
D:-6---6---6---6---|-6---6---6---6---|-6-6-4---4---4---|-4---6---6---6---|
A:-4---4---4---4---|-4---4---4---4---|-4-4-4---4---4---|-4---6---6---6--0|
E:-----------------|---------4---4---|-4-4-5---5---5---|-5---7---7---7--0|

My body's broken, yours is spent
No circumstances could excuse
There's never been so much at stake
Someone to bruise and leave behind



Chorus:

( Guitar 2 )
+ + + + + + + + + + + + + + + +
e:-----------------|-----0---0---0---|-----------------|-----4---4---4---|
B:-----------------|-----0---0---0---|-----------------|-----0---0---0---|
G:-6---6---6---6---|-6---6---6---6---|-6---6---6---6---|-6---6---6---6---|
D:-7---7---7---7---|-7---7---7---7---|-7---7---7---7---|-7---7---7---7---|
A:-7---7---7---7---|-7---7---7---7---|-7---7---7---7---|-7---7---7---7---|
E:-5---5---5---5---|-5---5---5---5---|-5---5---5---5---|-5---5---5---5---|

( Guitar 1, begins with second chorus )

+ + + + + + + + + + + + + + + +
e:-----------------|-----------------|-----------------|-----------------|
B:-----------------|-----------------|-----------------|-----------------|
G:-----------------|-----------------|-----------------|-----------------|
D:-----------------|-----------------|-----------------|-----------------|
A:-5---5---5---5---|-5---5---5---5---|-5---5---5---5---|-5---5---5---5---|
E:-5---5---5---5---|-5---5---5---5---|-5---5---5---5---|-5---5---5---5---|
* * * * * * * * * * * * * * * *

(harmonics)

Carve your name into my arm
In the shape of things to come
I serve my head up on a plate
All alone in space and time


+ + + + + + + + + + + + + + + +
e:-----------------|-----0---0---0---|-----------------|-----4---4---4---|
B:-----------------|-----0---0---0---|-----------------|-----0---0---0---|
G:-6---6---6---6---|-6---6---6---6---|-6---6---6---6---|-6---6---6---6---|
D:-6---6---6---6---|-6---6---6---6---|-6---6---6---6---|-6---6---6---6---|
A:-4---4---4---4---|-4---4---4---4---|-4---4---4---4---|-4---4---4---4---|
E:-----------------|-----------------|-----------------|-----------------|

+ + + + + + + + + + + + + + + +
e:-----------------|-----------------|-----------------|-----------------|
B:-----------------|-----------------|-----------------|-----------------|
G:-----------------|-----------------|-----------------|-----------------|
D:-----------------|-----------------|-----------------|-----------------|
A:-9---9---9---9---|-9---9---9---9---|-7---7---7---7---|-7---7---7---7---|
E:-----------------|-----------------|-----------------|-----------------|

Instead of stressed, I lie here charmed
Too much poison come undone
It's only comfort, calling late
There's nothing here but what here's mine


+ + + + + + + + + + + + + + + +
e:-----------------|-----0---0---0---|-----------------|-----4---4---4---|
B:-----------------|-----0---0---0---|-----------------|-----0---0---0---|
G:-6---6---6---6---|-6---6---6---6---|-6---6---6---6---|-6---6---6---6---|
D:-7---7---7---7---|-7---7---7---7---|-7---7---7---7---|-7---7---7---7---|
A:-7---7---7---7---|-7---7---7---7---|-7---7---7---7---|-7---7---7---7---|
E:-5---5---5---5---|-5---5---5---5---|-5---5---5---5---|-5---5---5---5---|

+ + + + + + + + + + + + + + + 
+ 
e:-----------------|-----------------|-----------------|-----------------|
B:-----------------|-----------------|-----------------|-----------------|
G:-----------------|-----------------|-----------------|-----------------|
D:-----------------|-----------------|-----------------|-----------------|
A:-5---5---5---5---|-5---5---5---5---|-5---5---5---5---|-5---5---5---5---|
E:-5---5---5---5---|-5---5---5---5---|-5---5---5---5---|-5---5---5---5---|
* * * * * * * * * * * * * * * *

'Cause there's nothing else to do
'Cause there's nothing else to do
'Cause there's nothing else to do
Something borrowed, something blue


+ + + + + + + + + + + + + + + +
e:-4---4---4---4---|-4---4---4---4---|-----------------|-----------------|
B:-4---4---4---4---|-4---4---4---4---|-----------------|-----------------|
G:-4---4---4---4---|-4---4---4---4---|-----------------|-----------------|
D:-6---6---6---6---|-6---6---6---6---|-6---6---6---6---|-6---6---6---6---|
A:-6---6---6---6---|-6---6---6---6---|-6---6---6---6---|-6---6---6---6---|
E:-0---0---0---0---|-0---0---0---0---|-4---4---4---4---|-4---4---4---4---|

+ + + + + + + + + + + + + + + + 
e:-----------------|-----------------|-----------------|-----------------|
B:-----------------|-----------------|-----------------|-----------------|
G:-----------------|-----------------|-----------------|-----------------|
D:-----------------|-----------------|-----------------|-----------------|
A:-3---3---3---3---|-3---3---3---3---|-3---3---3---3---|-3---3---3---3---|
E:-3---3---3---3---|-3---3---3---3---|-3---3---3---3---|-3---3---3---3---|
* * * * * * * * * * * * * * * *

Every me and every you
Every me and every you
Every me and every you
Every me and every you

(End for Guitar 1, live)

+ + + + + + + + + + + 
+ + + + + 
e:-16-16-16-16-16-16-16-16-|-16-16-16-16-16-16-16-16-|
B:-16-16-16-16-16-16-16-16-|-16-16-16-16-16-16-16-16-|
G:-------------------------|-------------------------|
D:-------------------------|-------------------------|
A:-------------------------|-------------------------|
E:-------------------------|-------------------------|

e:-16-16-16-16-16-16-16-16-|-12-12-12-12-12-12-12-12-|
B:-16-16-16-16-16-16-16-16-|-12-12-12-12-12-12-12-12-|
G:-------------------------|-------------------------|
D:-------------------------|-------------------------|
A:-------------------------|-------------------------|
E:-------------------------|-------------------------|

 

+ + + + + + + + + + + + + + + + 
e:-9-9-9-9-9-9-9-9-|-9-9-9-9-9-9-9-9-|-9-9-9-9-9-9-9-9-|-9-9-9-9-9-9-9-9-|
B:-9-9-9-9-9-9-9-9-|-9-9-9-9-9-9-9-9-|-9-9-9-9-9-9-9-9-|-9-9-9-9-9-9-9-9-|
G:-----------------|-----------------|-----------------|-----------------|
D:-----------------|-----------------|-----------------|-----------------|
A:-----------------|-----------------|-----------------|-----------------|
E:-----------------|-----------------|-----------------|-----------------|


Notes:
During the first chorus, instead of normal last chord, Guitar 2 can play
A:-5-5-5-5-5-5-5-5| (harmonics)
* * * * * * * *
E:-0-0-0-0-0-0-0-0-|

After "Something borrowed, something blue..." part, Guitar 1 can play
A:-6-6-7-7-7-7-7-7-|-7-7-7-7-7-7-7-7-|
E:-0-0-0-0-0-0-0-0-|-0-0-0-0-0-0-0-0-|(...)
before going back to harmonics.

Just before end riff, Guitar 1 can play
e:-9-9-9-9-9-9-9-9-|
B:-9-9-9-9-9-9-9-9-|(8X)
It is the end of the album version.











9. My Sweet Prince



This is the main guitar part used in all of the verses of the song, etc.
Note: Stefan plays guitar on this song.

C  --------------4-------------4-------------4--------------4--
C  -----------5-------------5-------------5--------------5-----
G# --------6-------------5-------------6--------------6--------
D# -----6-------------6-------------6--------------6-----------
A# --4-------------3-------------4--------------0--------------
F  ------------------------------------------------------------

"Me and the dragon..." bit (Let notes ring):

C  -----------------------4-------------------------4---------
C  --------------------5-------------------------5------------
G# --------6--------6---------------6--------6----------------
D# -----6-----------------------6-----------------------------
A# -------------------------0------------0--------------------
F  -0----------0----------------------------------------------


"You are the one..." bit:

C  ----------------------------------4----------
C  -------------------------------5-------------
G# --------6--------6-------6-------------------
D# ----6---------6-------6----------------------
A# ---------------------------------------------
F  -O---------0-------0-------0-----------------

C  ---------------------------------4-----------
C  ------------------------------5--------------
G# --------6--------6------6--------------------
D# ----6--------6-------6-----------------------
A# -0--------0-------0-------0------------------
F  ---------------------------------------------












10. Summer's Gone


Verve/Intro:

C  -0--0-0-0-0-0-0-0-0-0-0-0-0-0-0-0-0-0--0-0-0-0-0-0-0-0-0-0-0-0-0-0-0-0--
C  -0--0-0-0-0-0-0-0-0-0-0-0-0-0-0-0-0-0--0-0-0-0-0-0-0-0-0-0-0-0-0-0-0-0--
G# -0--0-0-0-0-0-0-0-0-0-0-0-0-0-0-0-0-0--0-0-0-0-0-0-0-0-0-0-0-0-0-0-0-0--
D# -4--4-4-4-4-2-0-7*9-9-9-9-9-9-9-9-9-4--4-4-4-4-2-0-5-5-5-5-5-5-5-5-5-5--
A# ------------------------------------------------------------------------
F  ------------------------------------------------------------------------

"You try to break the mould...." bit:


C  -0-0-0-0--0-0-0-0--0--0-0--0-0-0-0-0-0--0-0--0---0-0-0--0-0----
C  -0-0-0-0--0-0-0-0--0--0-0--0-0-0-0-0-0--0-0--0---0-0-0--0-0----
G# -0-0-0-0--0-0-0-0--0--0-0--0-0-0-0-0-0--0-0--0---0-0-0--0-0----
D# -5-5-5-5--5-5-5-5--5--5-5--5-5-4-4-4-4--4-4--4---4-4-4--4-4----
A# -3-3-3-3--3-3-3-3--3--3-3--3-3-2-2-2-2--2-2--2---2-2-2--2-2----Repeat
F  ---------------------------------------------------------------X2

"You try to break the mould...." bit, Guitar 2:

C  ---------------------------------------------------------
C  ---------------------------------------------------------
G# ---------------------------------------------------------
D# ---------------------------------------------------------
A# -19---17----15---14-----17-----15----14------------------Repeat
F  ---------------------------------------------------------X2

"Sing for your lover..." monologue:

C  -7-7-7-7--7-7--7-7-7--7-7-7-7--3-3-3-3--3--3-3-3-3--3----
C  -7-7-7-7--7-7--7-7-7--7-7-7-7--3-3-3-3--3--3-3-3-3--3----
G# -0-0-0-0--0-0--0-0-0--0-0-0-0--0-0-0-0--0--0-0-0-0--0----
D# ---------------------------------------------------------
A# ---------------------------------------------------------
F  ---------------------------------------------------------


C  -7-7-7-7-7--7-7-7-7-7--8-8-8-8-8-8-8-8-8-8-8----
C  -7-7-7-7-7--7-7-7-7-7--8-8-8-8-8-8-8-8-8-8-8----
G# -0-0-0-0-0--0-0-0-0-0--0-0-0-0-0-0-0-0-0-0-0----
D# ------------------------------------------------
A# ------------------------------------------------Repeat both bits
F  ------------------------------------------------X2











11. Scared of Girls



Tuning (D# A# D# G# C C)

Intro:

C  ---------------------------------------
C  ---------------------------------------
G# ---------------------------------------
D# ---------------------------------------
A# --7-7----7-7----7-7----7-7------------- 
D# --7-7----7-7----7-7----7-7-------------

Verse:

C  ----------------------------------------------
C  ----------------------------------------------
G# ----------------------------------------------
D# ----------------------------------------------
A# --7-7-7-7-10-10-10-10-7-7-7-7-10-10-10-10-----Repeat
F  --7-7-7-7-10-10-10-10-7-7-7-7-10-10-10-10-12--

"Careenin'..." bit:

C  --------------------------------------------
C  --------------------------------------------
G# --------------------------------------------
D# -7-7-7--------------------------------------
A# -7-7-7-<7>-<7>-<7>-<7>-<7>-<7>-<7>-<7>-<7>--Repeat
F  -7-7-7--------------------------------------(X3)


Last "Careenin'..." bit, just before chorus:

C  -------------------------------------------
C  -------------------------------------------
G# -------------------------------------------
D# -7-7-7-------------------------------------
A# -7-7-7-<5>-<5>-<5>-<5>-<5>-<5>-<5>-<5>-<5>- 
F  -7-7-7-------------------------------------


C  --------------------------------------------
C  --------------------------------------------
G# --------------------------------------------
D# --------------------------------------------
A# -0-0-7-7-7-8-8-14-12----0-0-7-7-7-8-8--14-15-----Repeat
F  --------------------------------------------

"Got a place inside it..." bit:

C  --------------------------------------
C  --------------------------------------
G# --------------------------------------
D# ---------------5-2--------------------
A# --------------------------------------Repeat
F  -5-5-5-5-5-1-1------------------------


Solo:

C  -------------------------------------------------------------------------------
C  -------------------------------------------------------------------------------
G# -17-17-17-16-16--16-16-16-14-14--14-14-14-12-12--12-12-12-10-10--*10-10-10-9-9-
D# -------------------------------------------------------------------------------
A# -------------------------------------------------------------------------------











12. Burger Queen



eb|-------------------|------------------|----------------|----------------|
Bb|-------------------|------------------|----------------|----------------|
Gb|-------------------|------------------|----------------|----------------|
Db|-------------------|------------------|----------------|----------------|
Ab|--4---4---5---4----|-----4-4---4--4---|--0--0-0-----0--|--0--0----0--0--|
Eb|--5---5---5---5----|-----5-5---5--5---|--2--2-2-/s/-5--|--5--5----5--5--|

eb|-------------------|-------------------|-----------------------|----------------|
Bb|-------------------|-------------------|-----------------------|----------------|
Gb|-------------------|-------------------|-----------------------|----------------|
Db|-------------------|--2----------------|-----------------------|----------------|
Ab|--4-/s/--2--2--2---|-----2---2---2--2--|-------5-----5-------4-|-2--------0-----|
Eb|--0---------0--0---|---------0---0--0--|--/s/--0-----0-------0-|-0--------0-----|

PART 2........

*   ============= EQUALS REPEATED PICKING (SOFTLY)

eb|--------------------------------------------------------------------------------|
Bb|---14========-12==========10========9------5-5-5---14======12========14======12-|
Gb|--------------------------------------------------------------------------------|
Db|--------------------------------------------------------------------------------|
Ab|--------------------------------------------------------------------------------|
Eb|--------------------------------------------------------------------------------|

PART 3...........

eb|-----------------------|R|------------------------------|R|
Bb|-----------------------|R|------------------------------|R|
Gb|-----------------------|R|------------------------------|R|
Db|-------------6---------|R|---6-6-6-6------4-----6-6-6-6-|R|
Ab|--4--4--4----7---------|R|---7-7-7-7--\S\-5-/S/-7-7-7-7-|R|
Eb|--5--5--5--------------|R|------------------------------|R|   R = REPEAT

PART 4

eb|-----------------------------------------------------------|
Bb|---10========-9===10======12--10---9-9-9----4---5========--|
Gb|-----------------------------------------------------------|
Db|-----------------------------------------------------------|
Ab|-----------------------------------------------------------|
Eb|-----------------------------------------------------------|

REPEAT A FEW TIMES THEN.....

eb|-----------------------------------------------------------|
Bb|---10========-9===10=================12--9=================|
Gb|-----------------------------------------------------------|
Db|-----------------------------------------------------------|
Ab|-----------------------------------------------------------|
Eb|-----------------------------------------------------------|

PART 5

eb|------------------------------------------------|R|
Bb|---10=====================-9====================|R|
Gb|------------------------------------------------|R|
Db|------------------------------------------------|R|
Ab|------------------------------------------------|R|
Eb|------------------------------------------------|R|

PART 6

eb|------------------------------------------------|R|
Bb|------------------------------------------------|R|
Gb|------------------------------------------------|R|
Db|------------------------------------------------|R|
Ab|------------------------------------------------|R|
Eb|----(7)--(7)------------------------------------|R|

PART 7

eb|-------------------------------------------------|R|
Bb|-------------------------------------------------|R|
Gb|-------------------------------------------------|R|
Db|----11------------------10-10------6-------------|R|
Ab|----12================= 11 11------7=============|R|
Eb|-------------------------------------------------|R|

PARTS1 AND 2 ARE PLAYED TOGETHER
PARTS 3 AND 4 ARE PLAYED TOGETHER
PARTS 5,6 AND SEVEN ARE PLAYED TOGETHER





 So here you go. Enjoy. I love brian molko, he is so freaken hott.xHxIxNxAxT
XXXPLACEBOCOREXXX
Suggest correction new What's this?
You can suggest a correction to this tab. Community and Mods will review your correction and vote to approve or reject it.
comments
print report bad tab
1 comment total.
0 reply
Strokesofgenius 120 wrote on May 27 2007, 04:35 am

were the fkn hell is evil dildo!!!!

guest
You may want to rate the tab now too:
select rating
Please do not post tabs as comments. Select "correction" instead!