Oops, an error
Loading. Please wait.
We have an official Without You Im Nothing tab made by UG professional guitarists. Check out the tab »
×
by Placebo
33,202 views 75 this week
6 commentsread comments
1 2 3 4 5
x 22
add to favorites
×
Save as Personal and add changes to this tab that will be seen only by you. Learn more ›
×
You can save this tab as Personal to edit and correct it or add notes. All changes will be seen only by you. Learn more »
save as personal
new!
launch autoscroll
font size
0
reset
how to read this tab
guitar tuner
backing track
0:00
0:00
Autoscroll
slow
fast
+/-
esc
set tempo
stop
Without You Im Nothing
Placebo

C |-0-0-0-0-0-0--0-0-0--0--0--0--0--0--0--0--0--0---0-0-0---|
C |-0-0-0-0-0-0--0-0-0--0--0--0--0--0--0--0--0--0---0-0-0---|
G#|-2-2-2-2-2-2--0-0-0--9--9--9--9--9--9--9--9--9---0-0-0---|
D#|-3-3-3-3-3-3--0-0-0--10-10-10-10-10-10-10-10-10--0-0-0---|
A#|-0-0-0-0-0-0--0-0-0--0--0--0--0--0--0--0--0--0---0-0-0---|
F |---------------------------------------------------------|


C |-0-0-0-0-0-0--0-0-0---0-0-0--5-5--------------------|
C |-0-0-0-0-0-0--0-0-0---0-0-0--5-5-0------------------|
G#|-2-2-2-2-2-2--0-0-0---2-2-2--5-5-0------------------|
D#|-3-3-3-3-3-3--0-0-0---2-2-2--0-0-0------------------|
A#|-0-0-0-0-0-0--0-0-0---0-0-0-------------------------|
F |----------------------------------------------------|

Tick, tock...

C |---------------------------------------------------------|
C |-------0--0-1-0--------------------0--0-1----------------|
G#|-------2--2------------------------2--2------------------|
D#|-------2--2------2-2-2-2-2---------2--2-----2-2-2-2-2----|
A#|----0----------------------0---0-----------------------0-|
F |---------------------------------------------------------|(x2)

C |---------------------------------------------------------|
C |-----0-1-1---0-1------0-1-1---0-1---------0-1-1---0-1----|
G#|-----2-----2----------2-----2-------------2-----2--------|
D#|-----2----------------2------------2-2----2--------------|
A#|----------------------------------------0----------------|
F |-1----------------1--------------------------------------|

I'm unclean, a libertine...

C |-----------------------------------------------|
C |--6-6-6-6-6-6-6-6-6-6-6-6-6-6-6-6--------------|
G#|--7-7-7-7-7-7-7-7-7-7-7-7-7-7-7-7--------------|
D#|--0-0-0-0-0-0-0-0-0-0-0-0-0-0-0-0--------------|
A#|-----------------------------------------------|
F |-----------------------------------------------|
Repeat
C |-----------------------------------------------|
C |--1-1-1-1-1-1-1-1-1-1-1-1-1-1-1-1--------------|
G#|--2-2-2-2-2-2-2-2-2-2-2-2-2-2-2-2--------------|
D#|--2-2-2-2-2-2-2-2-2-2-2-2-2-2-2-2--------------|
A#|--0-0-0-0-0-0-0-0-0-0-0-0-0-0-0-0--------------|
F |-----------------------------------------------|(x2)


I take the plan...

C |--10-10-10-10-10-10-10-10-10-10-10-10-10-10-10-14-14-14-14-|
C |--10-10-10-10-10-10-10-10-10-10-10-10-10-10-10-14-14-14-14-|
G#|-----------------------------------------------------------|
D#|-----------------------------------------------------------|
A#|-----------------------------------------------------------|
F |-----------------------------------------------------------|

C |-14-14-14-14-14-14-14-14-15-14-16-16-15-14-12-12-------0----|
C |-14-14-14-14-14-14-14-14-15-14-16-16-15-14-12-12-------0----|
C |-------------------------------------------------------1----|
G#|-------------------------------------------------------2----|
D#|-------------------------------------------------------2----|
A#|--------------------------------------------------0-0-------|
F |------------------------------------------------------------|(x2)


C |-------------------------------------------------------------|
C |-8----------------8-------------------8----------------------|
G#|---10-10-10-10------10--10--10--10------10-10-10-10-10-10----|
D#|-------------------------------------------------------------|
A#|-------------------------------------------------------------|
F |-------------------------------------------------------------|


C |---------------------------------------------------------------|
C |-8----------8-------------8------------------------------------|
G#|---9-9-9-9----9--9--9--9-----9-9-9-9---------------------------|
D#|---------------------------------------------------------------|
A#|---------------------------------------------------------------|
F |---------------------------------------------------------------|Repeat
Suggest correction
comments
print report bad tab
6 comments total. Showing first comments.
0 reply
[dark.saint] 50 Dec 06, 2004 07:00 PM

C --10-10-10-10-10-10-10-10-10-10-10-10-10-10-10-14-14-14-14-|
C --10-10-10-10-10-10-10-10-10-10-10-10-10-10-10-14-14-14-14-|
G# -----------------------------------------------------------|
D# -----------------------------------------------------------|
A# -----------------------------------------------------------|
F -----------------------------------------------------------|

C -14-14-14-14-14-14-14-14-15-14-16-16-15-14-12-12-------0----|
C -14-14-14-14-14-14-14-14-15-14-16-16-15-14-12-12-------0----|
C -------------------------------------------------------1----|
G# -------------------------------------------------------2----|
D# -------------------------------------------------------2----|
A# --------------------------------------------------0-0-------|

I think there's a mistake here.
The right way to play this little riff is this one:

C --10-10-10-10-10-10-10-10-10-10-10-10-10-10-10-15-15-15-15-|
C --10-10-10-10-10-10-10-10-10-10-10-10-10-10-10-16-16-16-16-|
G# -----------------------------------------------------------|
D# -----------------------------------------------------------|
A# -----------------------------------------------------------|
F -----------------------------------------------------------|

C -15-15-15-15-15-15-15-15-16-15-17-17--16--15--0-0-0--0----|
C -16-16-16-16-16-16-16-16-17-16-18-18--17--16---------1----|
G# -----------------------------------------------------2----|
D# -----------------------------------------------------2----|
A# -----------------------------------------------------0-0--|

Anyway, this is an excellent tab.

0 reply
#_TheTaWaVeS_# 31 Sep 26, 2006 09:35 AM

whats that tuning?
F-A#-D#-G#-C-C??
Half a step up
with two Cs.
random

0 reply
geo1985 20 Dec 06, 2007 01:40 PM

If we just put a capo on fret No1?

guest
Wanna post a correction for this tab? Suggest correction