Oops, an error
Loading. Please wait.

1 2 3 4 Tab

version 1
version 1

Interactive

Video

941,926 views 258 this week
20 commentsread comments
1 2 3 4 5
accurate
x 27
add to favorites
launch autoscroll
font size
0
reset
how to read this tab
guitar tuner
Autoscroll
slow
fast
+/-
esc
set tempo
stop
Help us to improve Ultimate-Guitar.com Take our survey!
×
Author
Feel Free To Fix the Interlude Riff, i became very lazy -_-" my apologies.

Chords Used:

    D    A     Bm    G
e|-------------------3---------|
B|-------0-----2-----2---------|
G|--0----3-----4---------------|
D|--2----3-----4---------------|
A|--3----3-----3-----3---------|
E|--2----3-----2-----3---------|


[Intro]
D, A, Bm, A, G, D

intro riff

e|-------------------------------------------------------------------|
B|-------------------------------------------------------------------|
G|-------------------------------------------------------------------|
D|---------------9-------7-------------------------------------------|
A|--10---7---10------10-------10-------------------------------------|
E|-------------------------------7---9---10-----10---12p10---10------|

[Verse]
D
give me more lovin then i've ever had.
A
make it all better when i'm feelin sad.
Bm                                            A
tell me that i'm special even when i know i'm not.
D
make me feel good when i hurt so bad.
A
barely gettin mad,
              Bm
im so glad i found you.
               A
i love bein around you.
             G
you make it easy,

           A
as easy as 1 2,(1 2 3 4.)


[Chorus]
             D         A       Bm          A    G
theres only one thing two do three words four you.
    D
i love you.
(i love you)

             D       A              Bm
theres only one way two say those three words
      A               G
and that's what i'll do.

    D
i love you.
(i love you)

[Verse]
D
give me more lovin from the very start.
A
piece me back together when i fall apart.
Bm                                               A
tell me things you never even tell your closest friends.
D
make me feel good when i hurt so bad.
A                                      Bm
best that i've had im so glad that i found you.
A
i love bein around you.

             G              A
you make it easy as easy as 1 2,(1 2 3 4.)

[Chorus]
             D         A      Bm          A     G
theres only one thing two do three words four you.
   D
i love you.

             D      A              Bm
theres only one way two say those three words
    A                 G
and that's what i'll do.
     D
i love you.  i love you

e|------------------------------------------------------------------------------|
B|------------------------------------------------------------------------------|
G|---------------------------------------------------------------------------7--|
D|-------------9-7-9--------------------9-7-9----------------9-7-9------7-9-8---|
A|-6s7--7-7-7--------7-7---6s7--7-7-7--------7-7---6s7--7-7-7-------7-7---------|
E|------------------------------------------------------------------------------|


e|----------------------------------------------------------------------------|
B|----------------------------------------------------------------------------|
G|------------------------------------------------------7---------------------|
D|------------9-7-9-----------------7--------9---7--7-6-----------------------|
A|-6s7--7-7-7-------7-7--6s7--7-7-7---10-8-7--7----5--------------------------|
E|----------------------------------------------------------------------------|

             G                A
you make it easy, its easy as 1234

Single Strum chords:

            D          A      Bm         A      G
theres only one thing two do three words four you
   D
i love you

Pickup Rhythm

             D       A             Bm
theres only one way two say those three words
A                G
thats what ill do
   D
i love you

(play intro Riff till end)



************************************

| p  Pull-off

************************************
Suggest correction
comments
print report bad tab
20 comments total. Showing first comments.
0 reply
Dellboy312 10 wrote on September 26 2008, 06:02 pm

dude its backwards

0 reply
stephenchun 10 wrote on September 28 2008, 06:46 pm

lol its upside down

0 reply
shift.comma.3 50 wrote on September 28 2008, 10:24 pm

oh shoot. sorry. i always do that -_-"

guest
You may want to rate the tab now too:
select rating
Please do not post tabs as comments. Select "correction" instead!