Oops, an error
Loading. Please wait.

1 2 3 4 Tab

version 5
version 5

Interactive

Video

260,024 views 177 this week
12 commentsread comments
1 2 3 4 5
excellent!
x 62
add to favorites
launch autoscroll
font size
0
reset
how to read this tab
guitar tuner
Autoscroll
slow
fast
+/-
esc
set tempo
stop
Help us to improve Ultimate-Guitar.com Take our survey!
×
Author
Artist: Plain White T's
Song: 1, 2, 3, 4
Tuning: Standard [EADGBe]


NOTES: *I'm a long time user, first time tabber.
       *Second vocal part is in parentheses.
       *Elipses are used to show a continuation from what came before it.
             e.g. The last chord of the CHORUS starts the BRIDGE/SOLO.
       *At the end are simply the chords for practicing along with the song (no vocals or solos).
       *Please rate & comment!
             I'm happy to make any improvements.

CHORDS USED:
[The G and Gm can be played as barre chords or standard. I use my thumb to play 
the low E string for the standard G & Gm.]
    D    A    A7   Bm   G      G    Gm     Gm
e|--2----0----0----2----3------3----3------3--|
B|--3----2----2----3----3------3----3------3--|
G|--2----2----0----4----4--or--0----3--or--0--|
D|--0----2----2----4----5------0----5------0--|
A|--x----0----0----2----5------2----5------1--|
E|--x----x----x----x----3------3----3------3--|

 

[Introductory interlude]

[These are the chords, but there is no guitar until the last two bars, which are palm muted]
| D - - - | A - - -  | Bm - - - | A - - - |
| G - - - | Gm - - - | D  - - - | D - - - |
                       1,   2,    1,2,3,4


[Intro]

    D                A                Bm               A
e|----------------|----------------|----------------|------7--9--10--|
B|--10-----7------|--10------------|--10------------|--10------------|
G|----------------|---------9------|---------7------|----------------|
D|----------------|----------------|----------------|----------------|
A|----------------|----------------|----------------|----------------|
E|----------------|----------------|----------------|----------------|

    G                Gm               D                D
e|----------------|--10-----12p10--|--10------------|----------------|
B|----------------|--11-----11-----|--10------------|----------------|
G|----------------|----------------|----------------|----------------|
D|----------------|----------------|----------------|----------------|
A|----------------|----------------|----------------|----------------|
E|----------------|----------------|----------------|----------------|


[Verse 1]

D                              D
Give me more lovin' than I've ever had.
A                           A
Make it all better when I'm feelin' sad.
Bm                            Bm              A     A7
Tell me that I'm special even when I know I'm not.

D                        D
Make me feel good when I hurt so bad.
A
Barely gettin' mad,
A             Bm
I'm so glad I found you.
Bm              A
  I love bein' around you.

A            G
 You make it easy,
G           A
 As easy as 1 2


[Chorus]

 A              D         A      Bm          A        G     Gm       D          D
   There's only one thing two do three words four you.              I love you.
(1 2       3 4)(one)     (two)  (three)     (four)          (I  love  you)

             D       A             Bm              A                    G     Gm       D          D
There's only one way two say those three words and that's what I'll do.              I love you.
            (one)   (two)         (three)         (four)                     (I  love  you)


[Verse 2]

D                            D
Give me more lovin' from the very start.
A                             A
Piece me back together when I fall apart.
Bm                            Bm                  A      A7
Tell me things you never even tell your closest friends.

D                        D
Make me feel good when I hurt so bad.
A                  A             Bm
Best that I've had I'm so glad I found you.
Bm              A
  I love bein' around you.

A            G
 You make it easy,
G           A
 As easy as 1 2


[Chorus]

 A              D         A      Bm          A        G     Gm        D          D
   There's only one thing two do three words four you.              I love you.
(1 2       3 4)(one)     (two)  (three)     (four)          (I  love  you)

             D       A             Bm              A                    G     Gm       D          D
There's only one way two say those three words and that's what I'll do.              I love you.
            (one)   (two)         (three)         (four)                     (I  love  you)

 G    Gm    D...
          I love you...
(I    love  you)


[Bridge/Solo]

 ...D                  D                  A                  A
e|------------------|------------------|------------------|------------------|
B|--6/7--7--7h5-----|--5h7----7--------|--6/7--7--7h5-----|--5h7----7--------|
G|---------------7--|------------------|---------------7--|------------------|
D|------------------|------------------|------------------|------------------|
A|------------------|------------------|------------------|------------------|
E|------------------|------------------|------------------|------------------|
...love you

    Bm                 Bm                 A                  A7
e|------------------|------------------|------------------|------------------|
B|--6/7--7--7h5-----|--5h7----7--------|--5---------------|------------------|
G|---------------7--|-------------7----|------7---6-------|------------------|
D|------------------|------------------|------------------|--7---------------|
A|------------------|------------------|------------------|------------------|
E|------------------|------------------|------------------|------------------|

    D                  D                  A                  A
e|------------------|------------------|------------------|--5---------------|
B|--6/7--7--7h5-----|--5h7----7--------|--6/7--7--7-------|------8---7---5---|
G|---------------7--|------------------|------------------|------------------|
D|------------------|------------------|------------------|------------------|
A|------------------|------------------|------------------|------------------|
E|------------------|------------------|------------------|------------------|
 
    Bm                 Bm                 A                  A...
e|------------------|------------------|------------------|------------------|
B|--5---7-----------|------------------|--7---5-----------|------------------|
G|------------------|--------7--7h6p7--|----------7-------|------------------|
D|------------------|------------------|------------------|--7---------------|
A|------------------|------------------|------------------|------------------|
E|------------------|------------------|------------------|------------------|
                                                                    You make it...

...A            G
 ...You make it easy,   
  G              A
    it's easy as 1 2


[Chorus]

               [Single Strum - Let Ring]                                       [Short]
 A              D         A      Bm          A        G     Gm       D          D
   There's only one thing two do three words four you.              I love you.
(1 2       3 4)(one)     (two)  (three)     (four)          (I  love  you)

            [Pick Up Rhythm]
             D       A             Bm              A                    G     Gm       D...
There's only one way two say those three words and that's what I'll do.              I love you.
            (one)   (two)         (three)         (four)                     (I  love  you)


[Outro]

 ...D                A                Bm               A
e|----------------|----------------|----------------|------7--9--10--|
B|--10-----7------|--10------------|--10------------|--10------------|
G|----------------|---------9------|---------7------|----------------|
D|----------------|----------------|----------------|----------------|
A|----------------|----------------|----------------|----------------|
E|----------------|----------------|----------------|----------------|
...love you

    G                Gm               D                D
e|----------------|--12------------|--10------------|----------------|
B|----------------|----------------|----------------|----------------|
G|----------------|----------------|----------------|----------------|
D|----------------|----------------|----------------|----------------|
A|----------------|----------------|----------------|----------------|
E|----------------|----------------|----------------|----------------|
                                I     love you
                    (I      love       you)

    D                A                Bm               A
e|----------------|----------------|----------------|------7--9--10--|
B|--10-----7------|--10------------|--10------------|--10------------|
G|----------------|---------9------|---------7------|----------------|
D|----------------|----------------|----------------|----------------|
A|----------------|----------------|----------------|----------------|
E|----------------|----------------|----------------|----------------|
   (one)            (two)            (three)          (four)

    G                Gm                D                D
e|----------------|--12------------|--10------------|----------------|
B|----------------|----------------|----------------|----------------|
G|----------------|----------------|----------------|----------------|
D|----------------|----------------|----------------|----------------|
A|----------------|----------------|----------------|----------------|
E|----------------|----------------|----------------|----------------|
                                I     love you
                    (I      love       you)

    G                Gm              *D                        *D
e|--10------------|--12------------|--10------------||       |--14--||
B|--11------------|--11------------|--10------------||  or   |--15--||
G|----------------|----------------|----------------||  to   |------||
D|----------------|----------------|----------------||  be   |------||
A|----------------|----------------|----------------|| fancy |------||
E|----------------|----------------|----------------||       |------||
                                I     love you
  (I                 love             you)




INTRODUCTORY INTERLUDE:
| D - - - | A  - - - | Bm - - - | A - - - | G - - - | Gm - - - | D  - - - | D - - - |


[Intro]

| D - - - | A  - - - | Bm - - - | A - - - | G - - - | Gm - - - | D  - - - | D - - - |


[Verse 1]

| D  - - - | D  - - - | A - - - | A  - - - | Bm - - - | Bm - - - | A - - - | A7 - - - |
| D  - - - | D  - - - | A - - - | A  - - - | Bm - - - | Bm - - - | A - - - | A  - - - |
| G  - - - | G  - - - | A - - - | A  - - - |


[Chorus]

| D - - - | A  - - - | Bm - - - | A - - - | G - - - | Gm - - - | D  - - - | D - - - |
| D - - - | A  - - - | Bm - - - | A - - - | G - - - | Gm - - - | D  - - - | D - - - |


[Verse 2]

| D  - - - | D  - - - | A - - - | A  - - - | Bm - - - | Bm - - - | A - - - | A7 - - - |
| D  - - - | D  - - - | A - - - | A  - - - | Bm - - - | Bm - - - | A - - - | A7 - - - |
| G  - - - | G  - - - | A - - - | A  - - - |


[Chorus]

| D - - - | A  - - - | Bm - - - | A - - - | G - - - | Gm - - - | D  - - - | D - - - |
| D - - - | A  - - - | Bm - - - | A - - - | G - - - | Gm - - - | D  - - - | D - - - |
| G - - - | Gm - - - |


[Bridge/Solo]

| D  - - - | D  - - - | A - - - | A  - - - | Bm - - - | Bm - - - | A - - - | A7 - - - |
| D  - - - | D  - - - | A - - - | A  - - - | Bm - - - | Bm - - - | A - - - | A  - - - |
| G  - - - | G  - - - | A - - - | A  - - - |


[Chorus]

 [Single Strum - Let Ring]                                                 [Short]
| D - - - | A  - - - | Bm - - - | A - - - | G - - - | Gm - - - | D  - - - | D       |
 [Pick Up Rhythm]
| D - - - | A  - - - | Bm - - - | A - - - | G - - - | Gm - - - |


[Outro]

| D - - - | A  - - - | Bm - - - | A - - - | G - - - | Gm - - - | D  - - - | D - - - |
| D - - - | A  - - - | Bm - - - | A - - - | G - - - | Gm - - - | D  - - - | D - - - |
                      [Let Ring]
| G - - - | Gm - - - | D        |



************************************

| x  Dead note
| h  Hammer-on
| p  Pull-off
| /  Slide up 

************************************
Suggest correction
What's this?
You can suggest a correction to this tab. Community and Mods will review your correction and vote to approve or reject it.
comments
print report bad tab
12 comments total. Showing first comments.
+2 reply
Master_Pi 1,115 wrote on March 20 2009, 05:40 pm

brillant, but theres one thing that i want to add

at the beginning of the bridge, theres no "6/7--7--7h5"
in my opinion it's "5/7--7--7h5"

but all in all great, five stars

+2 reply
kool235 103 wrote on April 13 2009, 03:49 am

cool, accurate..but i think Master Pi is right about the interlude part, it sounded pretty accurate when i tried it. nice tab, keep it up :D

0 reply
Jan.h 11 wrote on April 13 2009, 03:43 pm

very great tab...
in my opinion one of the best!!!

guest
You may want to rate the tab now too:
select rating
Please do not post tabs as comments. Select "correction" instead!