Oops, an error
Loading. Please wait.

1 2 3 4 Tab

version 7
version 7

Interactive

Video

4,752 views 1 this week
no commentswrite comment
1 2 3 4 5
please rate
add to favorites
launch autoscroll
font size
0
reset
how to read this tab
guitar tuner
Autoscroll
slow
fast
+/-
esc
set tempo
stop
Help us to improve Ultimate-Guitar.com Take our survey!
×
Author
Difficulty
novice
I learn this song through my teacher so enjoy learning =D
Intro:


D, A, Bm, A, G, D


--5------5------5--------5-----7-----9--10---10--12--10--10----------|
-----7-------5-------3-----------------------------------------------|
---------------------------------------------------------------------|
---------------------------------------------------------------------|
---------------------------------------------------------------------|
---------------------------------------------------------------------|


Verse 1:
D
give me more lovin then i've ever had.
A
make it all better when i'm feelin sad.
Bm                                            A
tell me that i'm special even when i know i'm not.
D
make me feel good when i hurt so bad.
A
barely gettin mad,
           Bm        
im so glad I found you.
               
I love bein around you.
       G
you make it easy,

    A
as easy as 1 2,(1 2 3 4.)


Chorus:
             D         A       Bm          A      
theres only one thing two do three words four you.
G  G  D
I love you.
(I love you)

             D       A              Bm
theres only one way two say those three words
      A               G
and that's what i'll do.

G   D
i love you.
(i love you)

Verse 2:
D
give me more lovin from the very start.
A
piece me back together when i fall apart.
Bm                                               A
tell me things you never even tell your closest friends.
D
make me feel good when i hurt so bad.
A                                      Bm
best that i've had im so glad that i found you.
A
i love bein around you.

             G              A
you make it easy as easy as 1 2,(1 2 3 4.)

Chorus:
             D         A      Bm          A      G
theres only one thing two do three words four you.
G   D
i love you.

             D      A              Bm
theres only one way two say those three words
    A                  G
and that's what i'll do.
     D
i love you.  i love you

------------------------------------------------------------------------------|
-6/7--7-7-7--------7-7---6/7--7-7-7---------7-7--6/7--7-7-7-------7-7---------|
------------9-7-9--------------------9-7-9------------------9-7-9-----7-9-7-6-|
-----------------------------------------------------------------------------7|
------------------------------------------------------------------------------|
------------------------------------------------------------------------------|

------------------------------------------------------------------------------|
-6/7--7-7-7--------7-7---6/7--7-7-7---------10-8-7-----7----5---5---7---------|
------------9-7-9--------------------7-------------9-9---[z]--7-------9-7-----|
--------------------------------------------------------------------------7---|
------------------------------------------------------------------------------|
------------------------------------------------------------------------------|


             G                A
you make it easy, its easy as 1234

Single Strum chords:

            D          A      Bm         A       G
theres only one thing two do three words four you
G   D
i love you

Pickup Rhythm

             D       A             Bm
theres only one way two say those three words
A                G
thats what ill do
   D
i love you

Outro (same as intro) x2
-------------------------------7---9---10-----10---12p10---10------|
--10----7---10-----10-------10-------------------------------------|
---------------9-------7-------------------------------------------|
-------------------------------------------------------------------|
-------------------------------------------------------------------|
-------------------------------------------------------------------|
A G    D
i love you
Suggest correction
What's this?
You can suggest a correction to this tab. Community and Mods will review your correction and vote to approve or reject it.
comments
We did not receive enough feedback on this tab! Please rate:
print report bad tab
1 2 3 4 5
guest
You may want to rate the tab now too:
select rating
Please do not post tabs as comments. Select "correction" instead!