Oops, an error
Loading. Please wait.

1 2 3 4 Tab

version 8
version 8

Interactive

Video

1,441 views 1 this week
no commentswrite comment
1 2 3 4 5
please rate
add to favorites
launch autoscroll
font size
0
reset
how to read this tab
guitar tuner
Autoscroll
slow
fast
+/-
esc
set tempo
stop
Help us to improve Ultimate-Guitar.com Take our survey!
×
Author
Difficulty
novice
1 2 3 4


Intro:
D, A, Bm7, A, G, Gm, D

Intro Riff(0:11)
--------------------------------------------------------------------------------|
--------------------------------------------------------------------------------|
--------------------------------------------------------------------------------|
-------------------------------7---9---10-----10---12p10---10-------------------|
--10----7---10-----10-------10--------------------------------------------------|
---------------9-------7--------------------------------------------------------|

Verse 1:
D
give me more lovin then i've ever had.
A
make it all better when i'm feelin sad.
Bm7                                            A
tell me that i'm special even when i know i'm not.
D
make me feel good when i hurt so bad.
A
barely gettin mad,
              Bm
im so glad I found you.
               A
I love bein around you.
             G
you make it easy,
           A
as easy as 1 2,(1 2 3 4.)

Chorus:
             D         A       Bm7          A      G
theres only one thing two do three words four you.
Gm   D
I love you.
(I love you)

theres only one way two say those three words
and that's what i'll do. i love you.(i love you)

Verse 2:
give me more lovin from the very start.
piece me back together when i fall apart.
tell me things you never even tell your closest friends.
make me feel good when i hurt so bad.
best that i've had im so glad that i found you.
i love bein around you.
you make it easy as easy as 1 2,(1 2 3 4.)

Chorus:
             D         A      Bm7          A      G
theres only one thing two do three words four you.
Gm   D
i love you.
             D      A              Bm7
theres only one way two say those three words
    A                  G
and that's what i'll do.
     D
i love you.  i love you
------------------------------------------------------------------------------|
------------------------------------------------------------------------------|
------------------------------------------------------------------------------|
-6/7--7-7-7--------7-7---6/7--7-7-7---------7-7--6/7--7-7-7-------7-7---------|
------------9-7-9--------------------9-7-9------------------9-7-9-----7-9-7-6-|
-----------------------------------------------------------------------------7|

------------------------------------------------------------------------------|
------------------------------------------------------------------------------|
------------------------------------------------------------------------------|
-6/7--7-7-7--------7-7---6/7--7-7-7---------10-8-7-----7----5---5---7---------|
------------9-7-9--------------------7-------------9-9---[z]--7-------9-7-----|
--------------------------------------------------------------------------7---|

             G                A
you make it easy, its easy as 1234
Suggest correction
Give kudos to tab author, rate the tab!
1 2 3 4 5
comments
print report bad tab
guest
You may want to rate the tab now too:
select rating
Please do not post tabs as comments. Select "correction" instead!