Oops, an error
Loading. Please wait.

All That We Needed Bass Tab

version 1
version 1

Whole song

Interactive

1,372 views 1 this week
no commentswrite comment
1 2 3 4 5
please rate
add to favorites
launch autoscroll
font size
0
reset
guitar tuner
Autoscroll
slow
fast
+/-
esc
set tempo
stop
Help us to improve Ultimate-Guitar.com Take our survey!
×
Author
Difficulty
intermediate
Artist: Plain White T's
Song: All That We Needed
Album: All That We Needed
Tabbed by: Kmilongo (kmilo1989@gmail.com)
Tuning: Standard 4-string (GDAE)

NOTE: A "*" indicates the note should be played continuously until a change occurs.
I know this tab is not 100% correct. Any corrections, email me!

Intro

G|-------------------------------|
D|-------------------------------|
A|5*-0000-5*-0000-2*-0000-2*-4444|
E|-------------------------------|

Verse

G|-------------------------------|
D|-------------------------------|
A|5*-0000-5*-0000-2*-0000-2*-4444|
E|-------------------------------|

G|-------------------------------|
D|-------------------------------|
A|5*-0000-5*-0000-2*-0000-2*-0000|
E|-------------------------------|

Pre Chorus

G|--------|
D|--------|
A|---2*-0*|
E|3*------|

Chorus

G|---------------------|
D|0*-0/5*--------------|
A|--------2*-0-0--0-0--|
E|---------------0-----|

Bridge

G|-------------------------------------|
D|------------------------4*-----------|
A|---2*-0*----2*-0*----5*----2*-0*-----|
E|3*-------3*-------3*-------------0/5*|

Interlude

G|-------------------------------|
D|-------------------------------|
A|5*-0000-5*-0000-2*-0000-2*-4444|
E|-------------------------------|

G|------------1111119997-----------------|
D|0*-79797-0*------------9*-7777-9-*-----|
A|-----------------------------------4444|
E|---------------------------------------|

Verse 2

G|---------------|
D|---------------|
A|5-5-5~---2-2-2~|
E|---------------|

G|---------------------|
D|---------------------|
A|5-5-5~---2-2-2~--2/14|
E|---------------------|


Order:

Intro
Verse      x2
Pre Chorus x2
Chorus     x2
Verse      x2
Pre Chorus x2
Chorus     x2
Bridge
Interlude
Verse 2
Pre Chorus x2
Chorus     x4

Song ends with
D|0~|
Suggest correction
What's this?
You can suggest a correction to this tab. Community and Mods will review your correction and vote to approve or reject it.
comments
We did not receive enough feedback on this tab! Please rate:
print report bad tab
1 2 3 4 5
guest
You may want to rate the tab now too:
select rating
Please do not post tabs as comments. Select "correction" instead!