Oops, an error
Loading. Please wait.

All That We Needed Tab

version 1
version 1

Whole song

Interactive

5,092 views 3 this week
no commentswrite comment
1 2 3 4 5
accurate
x 3
add to favorites
launch autoscroll
font size
0
reset
how to read this tab
guitar tuner
Autoscroll
slow
fast
+/-
esc
set tempo
stop
Help us to improve Ultimate-Guitar.com Take our survey!
×
Author
Intro/Verse 1: (3rd&4th time palm mute)
e |----------------------------------------------------------------| 
B |----------------------------------------------------------------| 
G |----------------------------------------------------------------|x4 
D |----------------------------------------------------------------|
A |--999-9---777---999-9---777---555-5---444---555-5---777---------|
E |----------------------------------------------------------------|

0:39 Pre-chorus:
e |----------------------------------------------------------------|
B |--10-----7------------------------------------------------------|
G |-----7-----7---9--6---------------------------------------------|
D |-------9-----7-------7------------------------------------------| x2
A |----------------------------------------------------------------|
E |----------------------------------------------------------------|

0:48 Chorus:
e |----------------------------------------------------------------|
B |----------------------------------------------------------------|
G |--7-7-7--7-7--------------------4-4-4--4-4-----2-2-2--2-2-------|x2
D |--7-7-7--7-7-----5-5-5--5-5-----4-4-4--4-4-----2-2-2--2-2-------|
A |--5-5-5--5-5-----5-5-5--5-5-----2-2-2--2-2-----0-0-0--0-0-------|
E |-----------------3-3-3--3-3-------------------------------------|


1:08 Verse 2 
e |----------------------------------------------------------------|
B |----------------------------------------------------------------| x2 
G |----------------------------------------------------------------|
D |----------------------------------------------------------------|
A |--55-4444--55-4444---99-4444--99-4444---------------------------|
E |----------------------------------------------------------------|

1:25 Pre-chorus
e |----------------------------------------------------------------|
B |--10-----7------------------------------------------------------|
G |-----7-----7---9--6---------------------------------------------|
D |-------9-----7-------7------------------------------------------| x2
A |----------------------------------------------------------------|
E |----------------------------------------------------------------|

1:34 chorus
e |----------------------------------------------------------------|
B |----------------------------------------------------------------|
G |--7-7-7--7-7--------------------4-4-4--4-4-----2-2-2--2-2-------| x2
D |--7-7-7--7-7-----5-5-5--5-5-----4-4-4--4-4-----2-2-2--2-2-------|
A |--5-5-5--5-5-----5-5-5--5-5-----2-2-2--2-2-----0-0-0--0-0-------|
E |-----------------3-3-3--3-3-------------------------------------|

1:51 verse 3
e |----------------------------------------------------------------|
B |----------------------------------------------------------------|
G |--4-4-4--2-2-2--------------------------------------------------|
D |--4-4-4--2-2-2--5-5-5--5-5-5------------------------------------|x2
A |--2-2-2--0-0-0--5-5-5--5-5-5------------------------------------|
E |----------------3-3-3--3-3-3------------------------------------|


2:11 bridge
e |--------------------------------------|    ---------------------|
B |--------------------------------------|    ---------------------|
G |--7-7-7--7-7-7--7-7-7--9-9-9----------|    -7-7-7---------------|
D |--7-7-7--7-7-7--7-7-7--9-9-9----------| x4 -7-7-7---------------|
A |--5-5-5--5-5-5--5-5-5--7-7-7----------|    -5-5-5---------------|
E |--------------------------------------|    ---------------------|

2:33 listen for the timing
e |----------------------------------------------------------------|
B |----------------------------------------------------------------|
G |----------------------------------------------------------------|
D |----------------------------------------------------------------|
A |--2-2-2-----0-0-0-----2-2-2-------------------------------------|
E |----------------------------------------------------------------|

2:46 Pre chorus 2
e |----------------------------------------------------------------|
B |--10-----7---------------10-----7-------------------------------|
G |-----7-----7---9--6---------7-----7-----------------------------|
D |-------9-----7-------7--------9-----7---------------------------|
A |----------------------------------------------------------------|
E |----------------------------------------------------------------|

2:55 Chorus
e |----------------------------------------------------------------|
B |----------------------------------------------------------------|
G |--7-7-7--7-7--------------------4-4-4--4-4-----2-2-2--2-2-------| x2
D |--7-7-7--7-7-----5-5-5--5-5-----4-4-4--4-4-----2-2-2--2-2-------|
A |--5-5-5--5-5-----5-5-5--5-5-----2-2-2--2-2-----0-0-0--0-0-------|
E |-----------------3-3-3--3-3-------------------------------------|

3:12
e |-----------------------------|   -------------------------------|
B |-----------------------------|   -------------------------------|
G |----------------4-4-4--2-2-2-|   -4-4-4--4-4-4--2-2-2--2-2-2--5-|
D |--5-5-5--5-5-5--4-4-4--2-2-2-|x3 -4-4-4--4-4-4--2-2-2--2-2-2--5-|
A |--5-5-5--5-5-5--2-2-2--0-0-0-|   -2-2-2--2-2-2--0-0-0--0-0-0--3-|
E |--3-3-3--3-3-3---------------|   -------------------------------|
Suggest correction
What's this?
You can suggest a correction to this tab. Community and Mods will review your correction and vote to approve or reject it.
comments
We did not receive enough feedback on this tab! Please rate:
print report bad tab
1 2 3 4 5
guest
You may want to rate the tab now too:
select rating
Please do not post tabs as comments. Select "correction" instead!