Oops, an error
Loading. Please wait.

Big Bad World bass

1,587 views 3 this week
no commentswrite comment
1 2 3 4 5
x 3
add to favorites
×
Save as Personal and add changes to this tab that will be seen only by you. Learn more ›
×
You can save this tab as Personal to edit and correct it or add notes. All changes will be seen only by you. Learn more »
launch autoscroll
font size
0
reset
guitar tuner
edit
Autoscroll
slow
fast
+/-
esc
set tempo
stop
Author
Song: Big Bad World
Artist: Plain White T's
Album: Big Bad World
Tabbed By: Nicholas Bien

Swing

Intro
  Bm      C       G       D       Bm      C       G       D       Bm
  + 1 + 2 + 3 + 4 + 1 + 2 + 3 + 4 + 1 + 2 + 3 + 4 + 1 + 2 + 3 + 4 +
G|-|---------------|---------------|---------------|---------------|
D|-|---------------|---------------|---------------|---------------|
A|-|---------------|---------------|---------------|---------------|
E|-|---------------|---------------|---------------|---------------|

Verse 1
        C       G       D       Bm      C       G       D       Bm
  1 + 2 + 3 + 4 + 1 + 2 + 3 + 4 + 1 + 2 + 3 + 4 + 1 + 2 + 3 + 4 +
G|---------------|---------------|---------------|---------------|
D|----------5----|----------4-5--|--5-------5----|----------4-5--|
A|------------5--|--2-3-5-------2|----2-3-----3--|--2-3-5-------2|
E|--------------3|---------------|--------------3|---------------|

        C       G       D       Bm      C       G       D       C
  1 + 2 + 3 + 4 + 1 + 2 + 3 + 4 + 1 + 2 + 3 + 4 + 1 + 2 + 3 + 4 +
G|---------------|---------------|---------------|---------------|
D|--5-------5----|----------4-5--|--5-------5----|----------5-4--|
A|----2-3-----3--|--2-3-5-------2|----2-3-----3--|--2-3-5-------3|
E|--------------3|---------------|--------------3|---------------|

Pre-Chorus 1
                G       D       C               G       D       C
  1 + 2 + 3 + 4 + 1 + 2 + 3 + 4 + 1 + 2 + 3 + 4 + 1 + 2 + 3 + 4 +
G|---------------|---------------|---------------|---------------|
D|---------------|---------------|---------------|---------------|
A|3-3---3-3-3----|------5-5-5---3|3-3---3-3-3----|------5-5-5---3|
E|--------------3|--3------------|--------------3|--3------------|

                G       D       C               G       D       C
  1 + 2 + 3 + 4 + 1 + 2 + 3 + 4 + 1 + 2 + 3 + 4 + 1 + 2 + 3 + 4 +
G|---------------|---------------|---------------|---------------|
D|---------------|--------------4|5--------------|---------------|
A|3-3---3-3-3----|------5-5-5----|---------------|5--------------|
E|--------------3|--3------------|---------------|---------------|

Chorus
  Em    C         G     D         Em    C         G     D
  1 + 2 + 3 + 4 + 1 + 2 + 3 + 4 + 1 + 2 + 3 + 4 + 1 + 2 + 3 + 4 +
G|---------------|---------------|---------------|---------------|
D|---------------|---------------|---------------|---------------|
A|7-7-7-3---3-3--|------5---5-5--|7-7-7-3---3-3--|------5---5-5--|
E|---------------|3-3-3----------|---------------|3-3-3----------|

  Em    C         G     D         Em    C         G     D       Bm
  1 + 2 + 3 + 4 + 1 + 2 + 3 + 4 + 1 + 2 + 3 + 4 + 1 + 2 + 3 + 4 +
G|---------------|---------------|---------------|---------------|
D|---------------|---------------|------------2-4|5-5-5----------|
A|7-7-7-3---3-3--|------5---5-5--|7-7-7-3---3----|------5-----5\-|
E|---------------|3-3-3----------|---------------|----------5----|

Verse 2
        C       G       D       Bm      C       G       D       Bm
  1 + 2 + 3 + 4 + 1 + 2 + 3 + 4 + 1 + 2 + 3 + 4 + 1 + 2 + 3 + 4 +
G|---------------|---------------|---------------|---------------|
D|----------5----|----------4-5--|--5-------5----|----------4-5--|
A|------------5--|--2-3-5-------2|----2-3-----3--|--2-3-5-------2|
E|--------------3|---------------|--------------3|---------------|

        C       G       D       Bm      C       G       D       C
  1 + 2 + 3 + 4 + 1 + 2 + 3 + 4 + 1 + 2 + 3 + 4 + 1 + 2 + 3 + 4 +
G|---------------|---------------|---------------|---------------|
D|--5-------5----|----------4-5--|--5-------5----|----------5-4--|
A|----2-3-----3--|--2-3-5-------2|----2-3-----3--|--2-3-5-------3|
E|--------------3|---------------|--------------3|---------------|

Pre-Chorus 2
                G       D       C               G       D       C
  1 + 2 + 3 + 4 + 1 + 2 + 3 + 4 + 1 + 2 + 3 + 4 + 1 + 2 + 3 + 4 +
G|---------------|---------------|---------------|---------------|
D|---------------|---------------|---------------|---------------|
A|3-3---3-3-3----|------5-5-5---3|3-3---3-3-3----|------5-5-5---3|
E|--------------3|--3------------|--------------3|--3------------|

                G       D       C               G       D       C
  1 + 2 + 3 + 4 + 1 + 2 + 3 + 4 + 1 + 2 + 3 + 4 + 1 + 2 + 3 + 4 +
G|---------------|---------------|---------------|---------------|
D|---------------|--------------4|5--------------|---------------|
A|3-3---3-3-3----|------5-5-5----|---------------|5--------------|
E|--------------3|--3------------|---------------|---------------|

Chorus
  Em    C         G     D         Em    C         G     D
  1 + 2 + 3 + 4 + 1 + 2 + 3 + 4 + 1 + 2 + 3 + 4 + 1 + 2 + 3 + 4 +
G|---------------|---------------|---------------|---------------|
D|---------------|---------------|---------------|---------------|
A|7-7-7-3---3-3--|------5---5-5--|7-7-7-3---3-3--|------5---5-5--|
E|---------------|3-3-3----------|---------------|3-3-3----------|

  Em    C         G     D         Em    C         G     D       Bm
  1 + 2 + 3 + 4 + 1 + 2 + 3 + 4 + 1 + 2 + 3 + 4 + 1 + 2 + 3 + 4 +
G|---------------|---------------|---------------|---------------|
D|---------------|---------------|------------2-4|5-5-5----------|
A|7-7-7-3---3-3--|------5---5-5--|7-7-7-3---3----|------5---5-5--|
E|---------------|3-3-3----------|---------------|---------------|

                                 Bridge
  Em    C         G     D         C       Bm      Am
  1 + 2 + 3 + 4 + 1 + 2 + 3 + 4 + 1 + 2 + 3 + 4 + 1 + 2 + 3 + 4 +
G|---------------|---------------|---------------|---------------|
D|---------------|---------------|---------------|----2/7---7-7--|
A|7-7-7-3---3-3--|------5---5-5--|3---3---2---2--|0--------------|
E|---------------|3-3-3----------|---------------|---------------|

  C       Bm      Am              C       Bm      Am      G
  1 + 2 + 3 + 4 + 1 + 2 + 3 + 4 + 1 + 2 + 3 + 4 + 1 + 2 + 3 + 4 +
G|---------------|---------------|---------------|---------------|
D|---------------|----2/10--9-7--|---------------|---------------|
A|3---3---2---2--|0--------------|3---5-3-2---3-2|0---2-0--------|
E|---------------|---------------|---------------|--------3---5-3|

  D/F#                            C
  1 + 2 + 3 + 4 + 1 + 2 + 3 + 4 + 1 + 2 + 3 + 4 + 1 + 2 + 3 + 4 +
G|---------------|---------------|---------------|---------------|
D|---------------|---------------|---------------|---------------|
A|---------------|---------------|3--------------|---------------|
E|2--------------|---------------|---------------|---------------|

  D/F#                            C                             Bm
  1 + 2 + 3 + 4 + 1 + 2 + 3 + 4 + 1 + 2 + 3 + 4 + 1 + 2 + 3 + 4 +
G|------7--------|---------------|---------------|---------------|
D|4--------------|---------------|---------------|---------------|
A|---------------|---------------|3--------------|--------------/|
E|---------------|---------------|---------------|---------------|

Verse 3
        C       G       D       Bm      C       G         D        Bm
  1 + 2 + 3 + 4 + 1 + 2 + 3 + 4 + 1 + 2 + 3 + 4 +  1 + 2  + 3 +  4 +
G|---------------|---------------|--12------12----|-----------11-12-|
D|---------------|---------------|9---9-10----10--|--9-10-12-------9|
A|---------------|---------------|--------------10|-----------------|
E|---------------|---------------|----------------|-----------------|

        C       G         D          C
  1 + 2 + 3 + 4 +  1 + 2  + 3 +  4 + 1 + 2 + 3 + 4 + 1 + 2 + 3 + 4 +
G|--12------12----|-----------11-12-|---------------|---------------|
D|----9-10----10--|--9-10-12--------|10-------------|---------------|
A|--------------10|-----------------|---------------|---------------|
E|----------------|-----------------|---------------|---------------|

Chorus
  Em    C         G     D         Em    C         G     D
  1 + 2 + 3 + 4 + 1 + 2 + 3 + 4 + 1 + 2 + 3 + 4 + 1 + 2 + 3 + 4 +
G|---------------|---------------|---------------|---------------|
D|---------------|---------------|---------------|---------------|
A|7-7-7-3---3-3--|------5---5-5--|7-7-7-3---3-3--|------5---5-5--|
E|---------------|3-3-3----------|---------------|3-3-3----------|

  Em    C         G     D         Em    C         G     D       Bm
  1 + 2 + 3 + 4 + 1 + 2 + 3 + 4 + 1 + 2 + 3 + 4 + 1 + 2 + 3 + 4 +
G|---------------|---------------|---------------|---------------|
D|---------------|---------------|------------2-4|5-5-5----------|
A|7-7-7-3---3-3--|------5---5-5--|7-7-7-3---3----|------5---5-5--|
E|---------------|3-3-3----------|---------------|---------------|

  Em    C         G     D         Em    C         G     D
  1 + 2 + 3 + 4 + 1 + 2 + 3 + 4 + 1 + 2 + 3 + 4 + 1 + 2 + 3 + 4 +
G|---------------|---------------|---------------|---------------|
D|---------------|---------------|---------------|---------------|
A|7-7-7-3---3-3--|------5---5-5--|7-7-7-3---3-3--|------5---5-5--|
E|---------------|3-3-3----------|---------------|3-3-3----------|

  Em    C         G     D         Em    C         G     D       Bm
  1 + 2 + 3 + 4 + 1 + 2 + 3 + 4 + 1 + 2 + 3 + 4 + 1 + 2 + 3 + 4 +
G|---------------|---------------|---------------|---------------|
D|---------------|---------------|------------2-4|5-5-5----------|
A|7-7-7-3---3-3--|------5---5-5--|7-7-7-3---3----|------5---5-5--|
E|---------------|3-3-3----------|---------------|---------------|

  Em    C         G     D         C
  1 + 2 + 3 + 4 + 1 + 2 + 3 + 4 + 1 + 2 + 3 + 4 + 1 + 2 + 3 + 4 +
G|---------------|---------------|---------------|---------------||
D|---------------|---------------|---------------|---------------||
A|7-7-7-3---3-3--|------5---5-5--|3--------------|---------------||
E|---------------|3-3-3----------|---------------|---------------||
Suggest correction
Creating personal tab
Creating personal tab
You can edit any tab online and save it as your Personal.

You can edit, replace or remove any tab part or add personal notes – all changes will be seen only by you.

Personal tabs can be accessed anytime from any device, even offline.
Learn more »
Give kudos to tab author, rate the tab!
1 2 3 4 5
comments
print report bad tab
guest
You may want to rate the tab now too:
select rating
Wanna post a correction for this tab? Suggest correction