Oops, an error
Loading. Please wait.

Breakdown Tab

version 1
version 1

Solo

Whole song

Interactive

1,151 views 1 this week
1 commentread comment
1 2 3 4 5
please rate
add to favorites
launch autoscroll
font size
0
reset
how to read this tab
guitar tuner
Autoscroll
slow
fast
+/-
esc
set tempo
stop
Help us to improve Ultimate-Guitar.com Take our survey!
×
Contributor
Difficulty
SPDCJ41 25
novice
         This is just the solo. Its not hard at all. Its super easy. It goes like this.....
e |--------------------------------------------------------------------|
B |------------5~-------------5-4--------------------------------------|
G |---4--6--4------4--6--4------------4-6-4-6--1-1-1--4-6-6-4-6--------|  
D |--------------------------------------------------------------------|  
A |--------------------------------------------------------------------|
E |--------------------------------------------------------------------|


e |---------------5~--------------------------------------------------|
B |--------------------------------5-4--5--4--2--0--------------------|
G |----4--6--4-------4--6--4------------------------------------------|  
D |---------------------------------------------------1--2--1---------|  
A |----------------------------------------------2--4-----------2-----|
E |-------------------------------------------------------------------|
         And there u go. Its easy isnt it. yup. haha  
         Plain White T's is an awsome band!!!!
comments
We did not receive enough feedback on this tab! Please rate:
print report bad tab
1 2 3 4 5
1 comment total.
0 reply
CptTrips 25 wrote on February 19 2006, 11:43 pm

you are totally missing a bunch of notes

G |---4--6--4--6----

I want to post or [tab]
guest
You may want to rate the tab now too:
select rating
Please do not post tabs as comments. Select "correction" instead!