Oops, an error
Loading. Please wait.

Broken Record bass

461 views 1 this week
1 commentread comment
1 2 3 4 5
1 last vote to show rating
add to favorites
×
Save as Personal and add changes to this tab that will be seen only by you. Learn more ›
×
You can save this tab as Personal to edit and correct it or add notes. All changes will be seen only by you. Learn more »
launch autoscroll
font size
0
reset
guitar tuner
edit
Autoscroll
slow
fast
+/-
esc
set tempo
stop
Broken Record- Plain White T's
-------------------------------------------------------------------------------
Tabbed by: Mike Kunz 
E-mail:  rmjk21@embarqmail.com

Tuning: Standard


 ( Intro )
 
G|------------------------|------------------------|------------------------|------------------------|
D|--------5-----------5---|--------1-----------3---|--------5-----------5---|--------1-----------3---|
A|-3--3-6---6-3-3-3-6---6-|------3---3-------5---5-|-3--3-6---6-3-3-3-6---6-|------3---3-------5---5-|
E|------------------------|-4--4-------6-6-6-------|------------------------|-4--4-------6-6-6-------|

  It was summer love-
G|------------------------|------------------------|------------------------|------------------------|
D|--------5-----------5---|--------1-----------3---|--------5-----------5---|--------1-----------3---|
A|-3--3-6---6-3-3-3-6---6-|------3---3-------5---5-|-3--3-6---6-3-3-3-6---6-|------3---3-------5---5-|
E|------------------------|-4--4-------6-6-6-------|------------------------|-4--4-------6-6-6-------| 


  From the back seat-
G|------------------------|------------------------|
D|--------5-----------5---|--------1-----------3---|
A|-3--3-6---6-3-3-3-6---6-|------3---3-------5---5-|
E|------------------------|-4--4-------6-6-6-------|

  The years have come and gone
G|-------------------|--------------------|-------------|
D|-------------------|--------------------|-------------|
A|-8--8--8--8--56----|--------------------|-------------|
E|------------8---8-8|-8--8-46-4--4--4--4-|6--6--6-6-6-6|    

  Kiss me good bye and I knew it was final
G|----------------------------------|-----------------------------------|
D|----------------------------------|-----------------------------------|
A|-3-3-3-3---------356-6-6-6--------|-3-3-3-3---------356-6-6-6---------|
E|---------4-4-4-4-----------6-6-6-6|---------4-4-4-4-----------6-6-6-6-|

  ba ba ba ba ba ba
G|---------------------------------------------------------------|
D|---------------------------------------------------------------|
A|-3-3-3-3---------356-6-6-6---------3-3-3-3---------356-6-6-6---|
E|---------4-4-4-4-----------6-6-6-6---------4-4-4-4-----------6-|

 She was hi-fi-
G|------------------------|------------------------|------------------------|------------------------|
D|--------5-----------5---|--------1-----------3---|--------5-----------5---|--------1-----------3---|
A|-3--3-6---6-3-3-3-6---6-|------3---3-------5---5-|-3--3-6---6-3-3-3-6---6-|------3---3-------5---5-|
E|------------------------|-4--4-------6-6-6-------|------------------------|-4--4-------6-6-6-------| 

  The years have come and gone
G|-------------------|--------------------|-------------|
D|-------------------|--------------------|-------------|
A|-8--8--8--8--56----|--------------------|-------------|
E|------------8---8-8|-8--8-46-4--4--4--4-|6--6--6-6-6-6|    

 Kiss me good bye and I knew it was final
G|----------------------------------|-----------------------------------|
D|----------------------------------|-----------------------------------|
A|-3-3-3-3---------356-6-6-6--------|-3-3-3-3---------356-6-6-6---------|
E|---------4-4-4-4-----------6-6-6-6|---------4-4-4-4-----------6-6-6-6-|

 ba ba ba ba ba ba
G|-------------------------------------------------------------------|
D|-------------------------------------------------------------------|
A|-3-3-3-3---------356-6-6-6---------3-3-3-3---------356-6-6-6-------|
E|---------4-4-4-4-----------6-6-6-6---------4-4-4-4-----------6-6-6-|

    I wish I could find her
G|-----------------------------------------------------------|
D|-----------------------------------------------------88888-|
A|---8-6-5--------------------8-6-5--------------------------|
E|-7-------4-4-4-4--6-6-6-6-7-------4-4-4-4-4-6-6-6-6--------|   

  Kiss me good bye and I knew
G|---------------------------------------------------------|
D|---------------------------------------------------------|
A|-3-------------6-------------3-------------6-----\6-5----|
E|--------4-------------6-------------4-----------------6--|    

   Kiss me good bye and I knew it was final
G|----------------------------------|-----------------------------------|
D|----------------------------------|-----------------------------------|
A|-3-3-3-3---------356-6-6-6--------|-3-3-3-3---------356-6-6-6---------|
E|---------4-4-4-4-----------6-6-6-6|---------4-4-4-4-----------6-6-6-6-|

 ba ba ba ba ba ba
G|---------------------------------------------------------------------|
D|---------------------------------------------------------------------|
A|-3-3-3-3---------356-6-6-6---------3-3-3-3---------356-6-6-6---------|
E|---------4-4-4-4-----------6-6-6-6---------4-4-4-4-----------6-6-6-6-|
  
  ( Outro )
 
  Skip Skip through my head 
G|-------------------------------------------------------------------------|
D|-------------------------------------------------------------------------|
A|-3-3-3-3---------356-6-6-6---------3-3-3-3---------356-6-6-6-6---------3-|
E|---------4-4-4-4-----------6-6-6-6---------4-4-4-4-------------6-6-6-6---|


            
            
Suggest correction
Creating personal tab
Creating personal tab
You can edit any tab online and save it as your Personal.

You can edit, replace or remove any tab part or add personal notes – all changes will be seen only by you.

Personal tabs can be accessed anytime from any device, even offline.
Learn more »
Give kudos to tab author, rate the tab!
1 2 3 4 5
comments
print report bad tab
1 comment total.
0 reply
MJL14 10 May 03, 2013 06:30 PM

Not bad, could use a little work though. Thanks for your contribution :D

guest
You may want to rate the tab now too:
select rating
Wanna post a correction for this tab? Suggest correction