Oops, an error
Loading. Please wait.

Easy Way Out Tab

version 1
version 1

Whole song

987 views 1 this week
no commentswrite comment
1 2 3 4 5
please rate
add to favorites
launch autoscroll
font size
0
reset
how to read this tab
guitar tuner
Autoscroll
slow
fast
+/-
esc
set tempo
stop
Help us to improve Ultimate-Guitar.com Take our survey!
×
Author
-------------------------------------------------------------------------------
                             Easy Way Out - Plain White Ts
-------------------------------------------------------------------------------
Tabbed by: Andres "silvadolla" Ali
Email: andres.ali@gmail.com

Tuning:EADGBE

Didn't see any full tabs of this song, so I tabbed it out myself. Everything sounds 
accurate to me. Listen to the song for rhythm and timing, it's relatively simple.

Intro:
e|---------------------------------------------------------------------------|
B|---------------------------------------------------------------------------|
G|--4---------------------------4--------------------------------------------|
D|--2---2-2h4-2---1-1-2p1-------2---2-2h4--9--7-7-6-6/4/2/-------------------|
A|----4--------------------2------4------------------------------------------|
E|---------------------------------------------------------------------------|

Verse:

e|---------------------|
B|---------------------|
G|--6-6-6--------------|
D|--6-6-6-7-7-7--9-9---|
A|--4-4-4-7-7-7--9-9---|
E|--------5-5-5--7-7---|x8

Chorus:

e|-------------------------------------------------|
B|-------------------------------------------------|
G|-6-6-6--------4-4/6-6/9-9/11-13/11-9/11-13-------|
D|-6-6-6-------------------------------------------|
A|-4-4-4-------------------------------------------|
E|-------------------------------------------------|

e|---------------------------|
B|---------------------------|
G|-6-6-6---------------------|
D|-6-6-6--7-7-7--9-9-9-9-----|
A|-4-4-4--7-7-7--9-9-9-9-----|
E|--------5-5-5--7-7-7-7-----| x2

Verse:

e|---------------------|
B|---------------------|
G|--6-6-6--------------|
D|--6-6-6-7-7-7--9-9---|
A|--4-4-4-7-7-7--9-9---|
E|--------5-5-5--7-7---|x8

Chorus:

e|-------------------------------------------------|
B|-------------------------------------------------|
G|-6-6-6--------4-4/6-6/9-9/11-13/11-9/11-13-------|
D|-6-6-6-------------------------------------------|
A|-4-4-4-------------------------------------------|
E|-------------------------------------------------|

e|---------------------------|
B|---------------------------|
G|-6-6-6---------------------|
D|-6-6-6--7-7-7--9-9-9-9-----|
A|-4-4-4--7-7-7--9-9-9-9-----|
E|--------5-5-5--7-7-7-7-----| x4


Solo:

e|-------------------------------------------------------------------------------|
B|-------------------------------------------------------------------------------|
G|--6-6---------6--9-------------------------------------------------------------|
D|--6-6---------6--9--7-7--------------------------------------------------------|
A|--4-4-4/2/4-4-4--7--7-7-4/2/4---4p2-7-6----------------------------------------|
E|--------------------5-5--------------------------------------------------------|x4
this part sounds a little off, experiment with it, and if you find something that better 
the track, please let me know.

Chorus:

e|-------------------------------------------------|
B|-------------------------------------------------|
G|-6-6-6--------4-4/6-6/9-9/11-13/11-9/11-13-------|
D|-6-6-6-------------------------------------------|
A|-4-4-4-------------------------------------------|x2
E|-------------------------------------------------|

e|---------------------------|
B|---------------------------|
G|-6-6-6---------------------|
D|-6-6-6--7-7-7--9-9-9-9-----|
A|-4-4-4--7-7-7--9-9-9-9-----|
E|--------5-5-5--7-7-7-7-----| x8

e|------------------|
B|------------------|
G|--6-6-6-----------|
D|--6-6-6-7-7-7-----|
A|--4-4-4-7-7-7-----|
E|--------5-5-5-----|Fine

That's it! Please email me with any comments/corrections/suggestions at andres.ali@gmail.com. Thanks.

| /  slide up
| \  slide down
| h  hammer-on
| p  pull-off
| ~  vibrato
| +  harmonic
| x  Mute note
===============================================================================
Suggest correction
Give kudos to tab author, rate the tab!
1 2 3 4 5
comments
print report bad tab
guest
You may want to rate the tab now too:
select rating
Wanna post a correction for this tab? Suggest correction