Oops, an error
Loading. Please wait.

Hate I Really Dont Like You bass

version 1
version 1

Whole song

Interactive

6,856 views 1 this week
3 commentsread comments
1 2 3 4 5
x 6
add to favorites
×
Save as Personal and add changes to this tab that will be seen only by you. Learn more ›
×
You can save this tab as Personal to edit and correct it or add notes. All changes will be seen only by you. Learn more »
launch autoscroll
font size
0
reset
guitar tuner
edit
Autoscroll
slow
fast
+/-
esc
set tempo
stop
Difficulty
intermediate
-------------------------------------------------------------------------------
			     Hate - Plain White T's
-------------------------------------------------------------------------------

Tabbed By : Alex-The God Of Bass In The Jungle

Tuning:EADG

Intro:  2x                                Or you can play:  2x
G|----------------6-4-6-8-12-8---9-8-6---------------------------------------|
D|-----6------4-7--------------9---------------------------------------------|
A|-4--7-7-4-7---------------------------------------------4-4-------2-2------|
E|------------------------------------------------------4-----2-2-2-----0-0-0|

Verse:  2x           Pre Chorus:   Chorus: The first part 2x
G|---------------------------------------------------------------------------|
D|---------------------------------------------------------------------------|
A|4-4-----2-2----------------------4-4---2-2-0-0-4444----2222----4444----2222|
E|----2-2-----0-0----555554-----------0-0------------2222----4444----0000----|

Bridge:
G|---------------------------------------------------------------------------|
D|---------------------------------------------------------------------------|
A|---------------------------------------------------------------------------|
E|-2-2-2-2-2-2-2-2-4-4-4-4-4-4-4-4-2-2-2-2-2-2-2-2-4-4-4-4-4-4-4-4-----------|

Play: Intro
      Verse
      Pre-Chorus
      Chorus

      The same again

      Bridge    
      Intro
      Pre-Chorus
      Chorus
      Intro
      
      Intro

      Have fun. My name is Alex and:"Hoi FB"




            
            
Suggest correction
Creating personal tab
Creating personal tab
You can edit any tab online and save it as your Personal.

You can edit, replace or remove any tab part or add personal notes – all changes will be seen only by you.

Personal tabs can be accessed anytime from any device, even offline.
Learn more »
comments
print report bad tab
3 comments total.
0 reply
Delboy_360 10 Feb 15, 2008 09:20 AM

Im not sure, but i THINK the intro is only guitar... Not entierly sure tho... Good tab anyway

0 reply
alexxxxxxx 295 Mar 03, 2008 07:56 AM

the intro is just for fun.

0 reply
ninasophie 31 Nov 13, 2009 09:17 AM

I think this is like the guitar part :P
The bass is doing something different...
I think :#

guest
Wanna post a correction for this tab? Suggest correction