Oops, an error
Loading. Please wait.
We have an official Hey There Delilah tab made by UG professional guitarists. Check out the tab »
×
87,823 views 60 this week
18 commentsread comments
1 2 3 4 5
x 36
add to favorites
×
Save as Personal and add changes to this tab that will be seen only by you. Learn more ›
×
You can save this tab as Personal to edit and correct it or add notes. All changes will be seen only by you. Learn more »
launch autoscroll
font size
0
reset
guitar tuner
edit
Autoscroll
slow
fast
+/-
esc
set tempo
stop
Author
Difficulty
Unregistered
[Intro]
G|---2---2---2---2---2---2---2---2---2---2---2---2---2---2---2---2---|
D|-0---0---0---0---4---4---4---4---0---0---0---0---4---4---4---4-----|
A|-------------------------------------------------------------------|
E|-------------------------------------------------------------------|

[Verse 1]
G|---2---2---2---2---2---2---2---2---2---2---2---2---2---2---2-------|
D|-0---0---0---0---4---4---4---4---0---0---0---0---4---4---4---4-----|
A|-------------------------------------------------------------------|
E|-------------------------------------------------------------------|

G|---4---4---4-------0---0---2---2---4---4---4---4---2---2-----------|
D|-------------------------------------------------------------------|
A|-2---2---2---0-----------0---0---2---2---2---2---0---0---0---0-----|
E|-----------------3---3---------------------------------------------|

G|---2---2---2---2---2---2---2---2---2---2---2---2---2---2---2-------|
D|-0---0---0---0---4---4---4---4---0---0---0---0---4---4---4---4-----|
A|-------------------------------------------------------------------|
E|-------------------------------------------------------------------|

[Chorus]
G|---2---2---2-------4---4---4---4---2---2---2--------4---4---4---4--|
D|-0---0---0-----------------------0---0---0-------------------------|
A|-------------0---2---2---2---4----------------0---2---2---2---4----|(x2)
E|-------------------------------------------------------------------|

[Interlude]
G|---2---2---2---2-------|
D|-0---0---0-------------|
A|-------------0---------|
E|-----------------------|

[Verse 2]
G|---2---2---2---2---2---2---2---2---2---2---2---2---2---2---2-------|
D|-0---0---0---0---4---4---4---4---0---0---0---0---4---4---4---4-----|
A|-------------------------------------------------------------------|
E|-------------------------------------------------------------------|

G|---4---4---4-------0---0---2---2---4---4---4---4---2---2-----------|
D|-------------------------------------------------------------------|
A|-2---2---2---0-----------0---0---2---2---2---2---0---0---0---0-----|
E|-----------------3---3---------------------------------------------|

G|---2---2---2---2---2---2---2---2---2---2---2---2---2---2---2-------|
D|-0---0---0---0---4---4---4---4---0---0---0---0---4---4---4---4-----|
A|-------------------------------------------------------------------|
E|-------------------------------------------------------------------|

G|---4---4---4-------0---0---2---2---4---4---4---4---2---2-----------|
D|-------------------------------------------------------------------|
A|-2---2---2---0-----------0---0---2---2---2---2---0---0---0---0-----|
E|-----------------3---3---------------------------------------------|

[Chorus]
G|---2---2---2-------4---4---4---4---2---2---2--------4---4---4---4--|
D|-0---0---0-----------------------0---0---0-------------------------|
A|-------------0---2---2---2---4----------------0---2---2---2---4----|(x2)
E|-------------------------------------------------------------------|

[Bridge]
G|---0---0---0---0---2---2---2---2---2---2---2-------4---4---4-------|
D|---------------------------------0---0---0-------------------------|
A|-----------------0---0---0---0---------------0---2---2---2---0-----|
E|-3---3---3---3-----------------------------------------------------|

G|---0---0---0---0---2---2---2---2---2---2---2-------4---4---4-------|
D|---------------------------------0---0---0-------------------------|
A|-----------------0---0---0---0---------------4---2---2---2---0-----|
E|-3---3---3---3-----------------------------------------------------|

G|---0---0---0---0---2---2---2-------4---4---4---4---4---4---4---4---|
D|-------------------------------------------------------------------|
A|-----------------0---0---0---0---2---2---2---2---2---2---2---2-----|
E|-3---3---3---3-----------------------------------------------------|

G|---2---2---2---2-------------------|
D|-----------------------------------|
A|-0---0---0---0---0---0---0---0-----|
E|-----------------------------------|

[Verse 3]
G|---2---2---2---2---2---2---2---2---2---2---2---2---2---2-----------|
D|-0---0---0---0---4---4---4---4---0---0---0---0---4---4---4---------|
A|-------------------------------------------------------------------|
E|-------------------------------------------------------------------|

G|---4---4---4-------0---0---2---2---4---4---4-------0---0---2---2---|
D|-------------------------------------------------------------------|
A|-2---2---2---0-----------0---0---2---2---2---0-----------0---0-----|
E|-----------------3---3---------------------------3---3-------------|


G|---4---4---4-------0---0---2---2---4---4---4---4---2---2---2---2---|
D|-------------------------------------------------------------------|
A|-2---2---2---0-----------0---0---2---2---2---2---0---0---0---0-----|
E|-----------------3---3---------------------------------------------|

G|-------------------|
D|-------------------|
A|-0---0---0---0-----|
E|-------------------|

[Chorus]
G|---2---2---2-------4---4---4---4---2---2---2-------4---4---4---4---|
D|-0---0---0-----------------------0---0---0-------------------------|
A|-------------0---2---2---2---4---------------0---2---2---2---4-----|(x4)
E|-------------------------------------------------------------------|

[Ending]
  D               strum
e|-----------------2---|
B|---3---3---3---3-3---|
G|---2---2---2---2-2---|
D|-0---0---0-------0---|
A|-------------0-------|
E|---------------------|
Suggest correction
Creating personal tab
Creating personal tab
You can edit any tab online and save it as your Personal.

You can edit, replace or remove any tab part or add personal notes – all changes will be seen only by you.

Personal tabs can be accessed anytime from any device, even offline.
Learn more »
comments
print report bad tab
18 comments total. Showing first comments.
-2 reply
xwafflex 134 Jun 20, 2007 09:29 PM

I think it sounds better just playing the lower notes. Nice work, even though it's just the lower guitar tab ;)

+1 reply
mark-o13 10 Jul 16, 2007 09:12 AM

awesme thanks it really helped me when i started.

-1 reply
bhobbs1021 10 Jul 16, 2007 06:24 PM

i haven't played this yet.....


but only because my bass and a printer are 700 miles away


and that's my only excuse

guest
Wanna post a correction for this tab? Suggest correction