Oops, an error
Loading. Please wait.

Hey There Delilah Tab

version 3
version 3

Whole song

223,486 views 30 this week
23 commentsread comments
1 2 3 4 5
x 56
add to favorites
launch autoscroll
font size
0
reset
how to read this tab
guitar tuner
Autoscroll
slow
fast
+/-
esc
set tempo
stop
Help us to improve Ultimate-Guitar.com Take our survey!
×
Author
Difficulty
novice
Artist : Plain White Ts
Album  : All That We Needed (2005)
Track  : 13
Title  : Hey There Delilah

[Intro]
e|---------------------------------|
B|---3---3---3---3---2---2---2---2-|
G|---------------------------------|
D|-0---0---0---0---4---4---4---4---|
A|---------------------------------|
E|---------------------------------|

e|---------------------------------|
B|---3---3---3---3---2---2---2---2-|
G|---------------------------------|
D|-0---0---0---0---4---4---4---4---|
A|---------------------------------|
E|---------------------------------|

[Verse 1]
e|---------------------------------|
B|---3---3---3---3---2---2---2---2-|
G|---------------------------------|
D|-0---0---0---0---4---4---4---4---|
A|---------------------------------|
E|---------------------------------|
Hey there Delilah
What's it like in New York City

e|---------------------------------|
B|---3---3---3---3---2---2---2---0-|
G|---------------------------------|
D|-0---0---0---0---4---4---4---4---|
A|---------------------------------|
E|---------------------------------|
I'm a thousand miles away
But girl tonight you look so pretty

e|---------------------------------|
B|---3---3---3-------3---3---2---0-|
G|---------------------------------|
D|---------------------------------|
A|-2---2---2---0-----------0---0---|
E|-----------------3---3-----------|
Yes you do
Time square can't shine

e|---------------------------0---0-|
B|---3---3---3---3---2---2---------|
G|---------------------------------|
D|---------------------------------|
A|-2---2---2---2---0---0---0---0---|
E|---------------------------------|
As bright as you
I swear it's true

e|---------------------------------|
B|---3---3---3---3---2---2---2---2-|
G|---------------------------------|
D|-0---0---0---0---4---4---4---4---|
A|---------------------------------|
E|---------------------------------|
Hey there Delilah
Don't you worry about the distance

e|---------------------------------|
B|---3---3---3---3---2---2---2---0-|
G|---------------------------------|
D|-0---0---0---0---4---4---4---4---|
A|---------------------------------|
E|---------------------------------|
I'm right there if you get lonely
Give this song another listen

e|---------------------------------|
B|---3---3---3-------3---3---2---0-|
G|---------------------------------|
D|---------------------------------|
A|-2---2---2---0-----------0---0---|
E|-----------------3---3-----------|
Close your eyes
Listen to my voice

e|---------------------------0---0-|
B|---3---3---3---3---2---2---------|
G|---------------------------------|
D|---------------------------------|
A|-2---2---2---2---0---0---0---0---|
E|---------------------------------|
It's my disguise
I'm by your side

[Chorus]
e|---------------------------------|
B|---3---3---3-------3---3---3-----|
G|---------------------------------|
D|-0---0---0-----------------------|
A|-------------0---2---2---2---4---|
E|---------------------------------|
Oh, it's what you do to me

e|---------------------------------|
B|---3---3---3-------3---3---3-----|
G|---------------------------------|
D|-0---0---0-----------------------|
A|-------------0---2---2---2---4---|
E|---------------------------------|
Oh, it's what you do to me

e|---------------------------------|
B|---3---3---3-------3---3---3-----|
G|---------------------------------|
D|-0---0---0-----------------------|
A|-------------0---2---2---2---4---|
E|---------------------------------|
Oh, it's what you do to me

e|---------------------------------|
B|---3---3---3-------3---3---3-----|
G|---------------------------------|
D|-0---0---0-----------------------|
A|-------------0---2---2---2---4---|
E|---------------------------------|
Oh, it's what you do to me

e|-----------------|
B|---3---3---3-----|
G|-----------------|
D|-0---0---0-------|
A|-------------0---|
E|-----------------|
What you do to me

[Verse 2]
e|---------------------------------|
B|---3---3---3---3---2---2---2---2-|
G|---------------------------------|
D|-0---0---0---0---4---4---4---4---|
A|---------------------------------|
E|---------------------------------|
Hey there Delilah
I know times are getting hard

e|---------------------------------|
B|---3---3---3---3---2---2---2---0-|
G|---------------------------------|
D|-0---0---0---0---4---4---4---4---|
A|---------------------------------|
E|---------------------------------|
But just believe me girl
Someday I'll pay the bills with this guitar

e|---------------------------------|
B|---3---3---3-------3---3---2---0-|
G|---------------------------------|
D|---------------------------------|
A|-2---2---2---0-----------0---0---|
E|-----------------3---3-----------|
We'll have it good
We'll have the life

e|---------------------------0---0-|
B|---3---3---3---3---2---2---------|
G|---------------------------------|
D|---------------------------------|
A|-2---2---2---2---0---0---0---0---|
E|---------------------------------|
We knew we would
My word is good

e|---------------------------------|
B|---3---3---3---3---2---2---2---2-|
G|---------------------------------|
D|-0---0---0---0---4---4---4---4---|
A|---------------------------------|
E|---------------------------------|
Hey there Delilah
I've got so much left to say

e|---------------------------------|
B|---3---3---3---3---2---2---2---0-|
G|---------------------------------|
D|-0---0---0---0---4---4---4---4---|
A|---------------------------------|
E|---------------------------------|
If every simple song I wrote to you
Would take your breath away

e|---------------------------------|
B|---3---3---3-------3---3---2---0-|
G|---------------------------------|
D|---------------------------------|
A|-2---2---2---0-----------0---0---|
E|-----------------3---3-----------|
I'd write it all
Even more in love with me

e|---------------------------0---0-|
B|---3---3---3---3---2---2---------|
G|---------------------------------|
D|---------------------------------|
A|-2---2---2---2---0---0---0---0---|
E|---------------------------------|
You'd fall
We'd have it all

[Chorus]
e|---------------------------------|
B|---3---3---3-------3---3---3-----|
G|---------------------------------|
D|-0---0---0-----------------------|
A|-------------0---2---2---2---4---|
E|---------------------------------|
Oh, it's what you do to me

e|---------------------------------|
B|---3---3---3-------3---3---3-----|
G|---------------------------------|
D|-0---0---0-----------------------|
A|-------------0---2---2---2---4---|
E|---------------------------------|
Oh, it's what you do to me

e|---------------------------------|
B|---3---3---3-------3---3---3-----|
G|---------------------------------|
D|-0---0---0-----------------------|
A|-------------0---2---2---2---4---|
E|---------------------------------|
Oh, it's what you do to me

e|---------------------------------|
B|---3---3---3-------3---3---3-----|
G|---------------------------------|
D|-0---0---0-----------------------|
A|-------------0---2---2---2---0---|
E|---------------------------------|
Oh, it's what you do to me

[Bridge]
e|---------------------------------|
B|---3---3---3---3---2---2---2---2-|
G|---------------------------------|
D|---------------------------------|
A|-----------------0---0---0---0---|
E|-3---3---3---3-------------------|
A thousand miles seems pretty far
But they've got planes, and trains, and cars

e|---------------------------------|
B|---3---3---3-------3---3---3-----|
G|---------------------------------|
D|-0---0---0-----------------------|
A|-------------4---2---2---2---0---|
E|---------------------------------|
I'd walk to you if I had no other way

e|---------------------------------|
B|---3---3---3---3---2---2---2---2-|
G|---------------------------------|
D|---------------------------------|
A|-----------------0---0---0---0---|
E|-3---3---3---3-------------------|
Our friends will all make fun of us
But we'll just laugh along because

e|---------------------------------|
B|---3---3---3-------3---3---3-----|
G|---------------------------------|
D|-0---0---0-----------------------|
A|-------------4---2---2---2---0---|
E|---------------------------------|
We know that none of them have felt this way

e|---------------------------------|
B|---3---3---3---3---2---2---2---0-|
G|---------------------------------|
D|---------------------------------|
A|-----------------0---0---0---0---|
E|-3---3---3---3-------------------|
Delilah I can promise you
That by the time that we get through

e|---------------------------------|
B|---3---3---3---3---3---3---3---3-|
G|---------------------------------|
D|---------------------------------|
A|-2---2---2---2---2---2---2---2---|
E|---------------------------------|
The world will never ever be the same

e|-------------------0---0---0---0-|
B|---2---2---2---2-----------------|
G|---------------------------------|
D|-0---0---0---0---0---0---0---0---|
A|---------------------------------|
E|---------------------------------|
And you're to blame

[Verse 3]
e|---------------------------------|
B|---3---3---3---3---2---2---2---2-|
G|---------------------------------|
D|-0---0---0---0---4---4---4---4---|
A|---------------------------------|
E|---------------------------------|
Hey there Delilah
You be good and don't you miss me

e|---------------------------------|
B|---3---3---3---3---2---2---------|
G|---------------------------------|
D|-0---0---0---0---4---4---4-------|
A|---------------------------------|
E|---------------------------------|
Two more years and you'll be done with school
And I'll be making history like I do

e|---------------------------------|
B|---3---3---3-------3---3---2---0-|
G|---------------------------------|
D|---------------------------------|
A|-2---2---2---0-----------0---0---|
E|-----------------3---3-----------|
You'll know it's all because of you

e|---------------------------------|
B|---3---3---3-------3---3---2---0-|
G|---------------------------------|
D|---------------------------------|
A|-2---2---2---0-----------0---0---|
E|-----------------3---3-----------|
We can do whatever we want to

e|---------------------------------|
B|---3---3---3-------3---3---2---0-|
G|---------------------------------|
D|---------------------------------|
A|-2---2---2---0-----------0---0---|
E|-----------------3---3-----------|
Hey there Delilah here's to you

e|-----------------|
B|---3---3---3---3-|
G|-----------------|
D|-----------------|
A|-2---2---2---2---|
E|-----------------|
This one's for you

e|-------------------0---0---0---0-|
B|---2---2---2---2-----------------|
G|---------------------------------|
D|-0---0---0---0---0---0---0---0---|
A|---------------------------------|
E|---------------------------------|

[Chorus]
e|---------------------------------|
B|---3---3---3-------3---3---3-----|
G|---------------------------------|
D|-0---0---0-----------------------|
A|-------------0---2---2---2---4---|
E|---------------------------------|
Oh, it's what you do to me

e|---------------------------------|
B|---3---3---3-------3---3---3-----|
G|---------------------------------|
D|-0---0---0-----------------------|
A|-------------0---2---2---2---4---|
E|---------------------------------|
Oh, it's what you do to me

e|---------------------------------|
B|---3---3---3-------3---3---3-----|
G|---------------------------------|
D|-0---0---0-----------------------|
A|-------------0---2---2---2---4---|
E|---------------------------------|
Oh, it's what you do to me

e|---------------------------------|
B|---3---3---3-------3---3---3-----|
G|---------------------------------|
D|-0---0---0-----------------------|
A|-------------0---2---2---2---0---|
E|---------------------------------|
Oh, it's what you do to me

e|---------------------------------|
B|---3---3---3-------3---3---3-----|
G|---------------------------------|
D|-0---0---0-----------------------|
A|-------------0---2---2---2---4---|
E|---------------------------------|
What you do to me

[Outro]
e|---------------------------------|
B|---3---3---3-------3---3---3-----|
G|---------------------------------|
D|-0---0---0-----------------------|
A|-------------0---2---2---2---4---|
E|---------------------------------|

e|---------------------------------|
B|---3---3---3-------3---3---3-----|
G|---------------------------------|
D|-0---0---0-----------------------|
A|-------------0---2---2---2---4---|
E|---------------------------------|

e|---------------------------------|
B|---3---3---3-------3---3---3-----|
G|---------------------------------|
D|-0---0---0-----------------------|
A|-------------0---2---2---2---0---|
E|---------------------------------|

e|-----------------2---------------|
B|---3---3---3-----3---------------|
G|-----------------2---------------|
D|-0---0---0-------0---------------|
A|-------------0---0---------------|
E|---------------------------------|
Suggest correction
comments
print report bad tab
23 comments total. Showing first comments.
+1 reply
guitar_geek_43 10 Feb 03, 2007 01:50 PM

I like it. Good job.

+2 reply
Naitsabes 10 Feb 20, 2007 04:09 AM

hey this is almost right but if you listen to the orignal it has 2 notes on each pick, but it can be worked out easly from this.

+1 reply
headster1993 10 Mar 19, 2007 08:29 PM

Great tab..gj :)

guest
You may want to rate the tab now too:
select rating
Wanna post a correction for this tab? Suggest correction