Oops, an error
Loading. Please wait.
We have an official Hey There Delilah tab made by UG professional guitarists. Check out the tab »
×

Hey There Delilah tab

120,721 views 81 this week
11 commentsread comments
1 2 3 4 5
x 33
add to favorites
×
Save as Personal and add changes to this tab that will be seen only by you. Learn more ›
×
You can save this tab as Personal to edit and correct it or add notes. All changes will be seen only by you. Learn more »
launch autoscroll
font size
0
reset
how to read this tab
guitar tuner
edit
Autoscroll
slow
fast
+/-
esc
set tempo
stop
-----------------------------------------------------------------------------
                             Hey there delilah – Plain white t’s
-----------------------------------------------------------------------------
Tabbed by: Peder Burger
Email: pedercburger@gmail.com

Hey peeps, this is the very easy version.

Plz let me know if u like it, and if its any good! Enjoy my 3 hours of  hard work! 
the Capo on 2nd fret!

Tuning: Standard tuning (Capo on 2nd fret)

Intro:
      C                             Em
e|-------------------------------------------------------------------------|
B|-----1-------1------1------1p0------0------0-------0------0h1------------|
G|-----0-------0------0------0--------0------0-------0------0--------------|
D|--------------------------------2------2------2-------2------------------|
A|-3-------3------3------3-------------------------------------------------|
E|-------------------------------------------------------------------------|
      C                             Em
e|-------------------------------------------------------------------------|
B|-----1-------1------1------1p0------0------0-------0------0h1------------|
G|-----0-------0------0------0--------0------0-------0------0--------------|
D|--------------------------------2------2------2-------2------------------|
A|-3-------3------3------3-------------------------------------------------|
E|-------------------------------------------------------------------------|

    C                             Em
e|-------------------------------------------------------------------------|
B|-----1-------1------1------1p0------0------0-------0------0h1------------|
G|-----0-------0------0------0--------0------0-------0------0--------------|
D|--------------------------------2------2------2-------2------------------|
A|-3-------3------3------3-------------------------------------------------|
E|-------------------------------------------------------------------------|
       Hey there Delilah what’s it like in New York City I’m a…

    C                             Em
e|-------------------------------------------------------------------------|
B|-----1-------1------1------1p0------0------0-------0------0h1------------|
G|-----0-------0------0------0--------0------0-------0------0--------------|
D|--------------------------------2------2------2-------2------------------|
A|-3-------3------3------3-------------------------------------------------|
E|-------------------------------------------------------------------------|
   Thousand miles away but girl tonight you look so pretty yes you…

   Am                              F               G
e|-------------------------------------------------------------------------|
B|-----1-------1-------1-----------------------------------3---------3-----|
G|-----2-------2-------2---0-----------2---------2---------0---------0-----|
D|-------------------------------------3---------3-------------------------|
A|-0-------0-------0-------------------------------------------------------|
E|---------------------------------1--------1---------3---------3----------|
   Do…                                Time Square cant shine as bright as…

   Am                               G
e|-------------------------------------------------------------------------|
B|-----1-------1-------1-------1-------0-------0-------3-------3-----------|
G|-----2-------2-------2-------2-------0-------0-------0-------0-----------|
D|-------------------------------------------------------------------------|
A|-0-------0-------0-------0-----------------------------------------------|
E|---------------------------------3-------3-------3-------3---------------|
  You                              I swear it true…

      C                             Em
e|-------------------------------------------------------------------------|
B|-----1-------1------1------1p0------0------0-------0------0h1------------|
G|-----0-------0------0------0--------0------0-------0------0--------------|
D|--------------------------------2------2------2-------2------------------|
A|-3-------3------3------3-------------------------------------------------|
E|-------------------------------------------------------------------------|
       Hey there Delilah don’t you worry about the distance I’m right…

     C                             Em
e|-------------------------------------------------------------------------|
B|-----1-------1------1------1p0------0------0-------0------0h1------------|
G|-----0-------0------0------0--------0------0-------0------0--------------|
D|--------------------------------2------2------2-------2------------------|
A|-3-------3------3------3-------------------------------------------------|
E|-------------------------------------------------------------------------|
   There if you get lonely give this song another listen close your…

   Am                              F                  G
e|-------------------------------------------------------------------------|
B|-----1-------1-------1-----------------------------------3---------3-----|
G|-----2-------2-------2---0-----------2---------2---------0---------0-----|
D|-------------------------------------3---------3-------------------------|
A|-0-------0-------0-------------------------------------------------------|
E|---------------------------------1--------1---------3---------3----------|
   Eyes…                          listen   to   my   voice  it’s  my dis…

   Am                               G
e|---------------------------------------------------------------------------|
B|-----1-------1-------1-------1-------0-------0-------3-------3-------------|
G|-----2-------2-------2-------2-------0-------0-------0-------0-------------|
D|---------------------------------------------------------------------------|
A|-0-------0-------0-------0-------------------------------------------------|
E|---------------------------------3-------3-------3-------3-----------------|
  …guise            I’m by your side…


CHORUS: (repeat 4 times)

   C                              Am
e|---------------------------------------------------------------------------|
B|-----1-------1------1------1--------1------1-------1------1----------------|
G|-----0-------0------0------0--------2------2-------2------2----------------|
D|---------------------------------------------------------------------------|
A|-3-------3------3------3--------0------0------0-------0--------------------|
E|---------------------------------------------------------------------------|
   Oooooh      it’s what you do to meeeee

     C                             Em
e|-------------------------------------------------------------------------|
B|-----1-------1------1------1p0------0------0-------0------0h1------------|
G|-----0-------0------0------0--------0------0-------0------0--------------|
D|--------------------------------2------2------2-------2------------------|
A|-3-------3------3------3-------------------------------------------------|
E|-------------------------------------------------------------------------|
       Hey there Delilah I know   times are getting hard but just…

    C                             Em
e|-------------------------------------------------------------------------|
B|-----1-------1------1------1p0------0------0-------0------0h1------------|
G|-----0-------0------0------0--------0------0-------0------0--------------|
D|--------------------------------2------2------2-------2------------------|
A|-3-------3------3------3-------------------------------------------------|
E|-------------------------------------------------------------------------|
  Believe me girl someday I’ll pay the bills with this guitar we’ll have it…

   Am                              F                  G
e|-------------------------------------------------------------------------|
B|-----1-------1-------1-----------------------------------3---------3-----|
G|-----2-------2-------2---0-----------2---------2---------0---------0-----|
D|-------------------------------------3---------3-------------------------|
A|-0-------0-------0-------------------------------------------------------|
E|---------------------------------1--------1---------3---------3----------|
   Good…                          we’ll have the live we knew we…

   Am                               G
e|-------------------------------------------------------------------------|
B|-----1-------1-------1-------1-------0-------0-------3-------3-----------|
G|-----2-------2-------2-------2-------0-------0-------0-------0-----------|
D|-------------------------------------------------------------------------|
A|-0-------0-------0-------0-----------------------------------------------|
E|---------------------------------3-------3-------3-------3---------------|
  Would…               …my word is good

    C                             Em
e|-------------------------------------------------------------------------|
B|-----1-------1------1------1p0------0------0-------0------0h1------------|
G|-----0-------0------0------0--------0------0-------0------0--------------|
D|--------------------------------2------2------2-------2------------------|
A|-3-------3------3------3-------------------------------------------------|
E|-------------------------------------------------------------------------|
       Hey there Delilah I’ve got so much left to say If every…

    C                             Em
e|-------------------------------------------------------------------------|
B|-----1-------1------1------1p0------0------0-------0------0h1------------|
G|-----0-------0------0------0--------0------0-------0------0--------------|
D|--------------------------------2------2------2-------2------------------|
A|-3-------3------3------3-------------------------------------------------|
E|-------------------------------------------------------------------------|
  …simple song I wrote to you would take your breath away I’d write it…

   Am                              F                  G
e|-------------------------------------------------------------------------|
B|-----1-------1-------1-----------------------------------3---------3-----|
G|-----2-------2-------2---0-----------2---------2---------0---------0-----|
D|-------------------------------------3---------3-------------------------|
A|-0-------0-------0-------------------------------------------------------|
E|---------------------------------1--------1---------3---------3----------|
   All…                             even more in love with me you’d…

   Am                               G
e|-------------------------------------------------------------------------|
B|-----1-------1-------1-------1-------0-------0-------3-------3-----------|
G|-----2-------2-------2-------2-------0-------0-------0-------0-----------|
D|-------------------------------------------------------------------------|
A|-0-------0-------0-------0-----------------------------------------------|
E|---------------------------------3-------3-------3-------3---------------|
  fall…               …we’d have it all


CHORUS: (repeat 4 times)

   C                              Am
e|---------------------------------------------------------------------------|
B|-----1-------1------1------1--------1------1-------1------1----------------|
G|-----0-------0------0------0--------2------2-------2------2----------------|
D|---------------------------------------------------------------------------|
A|-3-------3------3------3--------0------0------0-------0--------------------|
E|---------------------------------------------------------------------------|
   Oooooh      it’s what you do to meeeee

    F                              G
e|-------------------------------------------------------------------------|
B|-------------------------------------3-------3-------3-------3-----------|
G|-----2-------2-------2-------2-------0-------0-------0-------0-----------|
D|-----3-------3-------3-------3-------------------------------------------|
A|-------------------------------------------------------------------------|
E|-1-------1-------1-------1-------3-------3-------3-------3---------------|
A thousand miles seems pretty far but they’ve got planes and trains and cars

   C                              Am
e|-------------------------------------------------------------------------|
B|-----1-------1------1------1--------1------1-------1------1--------------|
G|-----0-------0------0------0--------2------2-------2------2--------------|
D|-------------------------------------------------------------------------|
A|-3-------3------3------3--------0------0------0-------0------------------|
E|-------------------------------------------------------------------------|
  I’d walk to you if I had no other way

    Fm                           G
e|-------------------------------------------------------------------------|
B|-------------------------------------3-------3-------3-------3-----------|
G|-----2-------2-------2-------2-------0-------0-------0-------0-----------|
D|-----3-------3-------3-------3-------------------------------------------|
A|-------------------------------------------------------------------------|
E|-1-------1-------1-------1-------3-------3-------3-------3---------------|
  Our friends would all make fun of us and well just laugh along because…

   C                              Am
e|-------------------------------------------------------------------------|
B|-----1-------1------1------1--------1------1-------1------1--------------|
G|-----0-------0------0------0--------2------2-------2------2--------------|
D|-------------------------------------------------------------------------|
A|-3-------3------3------3--------0------0------0-------0------------------|
E|-------------------------------------------------------------------------|
  We know that none of them had felt this way

    F                              G
e|-------------------------------------------------------------------------|
B|-------------------------------------3-------3-------3-------3-----------|
G|-----2-------2-------2-------2-------0-------0-------0-------0-----------|
D|-----3-------3-------3-------3-------------------------------------------|
A|-------------------------------------------------------------------------|
E|-1-------1-------1-------1-------3-------3-------3-------3---------------|
   Delilah I can promise you that by the time we get through…

   C
e|-------------------------------------------------------------------------|
B|-----1-------1------1------1--------1------1-------1------1--------------|
G|-----0-------0------0------0--------0------0-------0------0--------------|
D|-------------------------------------------------------------------------|
A|-3-------3------3------3--------3------3------3-------3------------------|
E|-------------------------------------------------------------------------|
  The world will never ever be the same and your to…

   G
e|-------------------------------------------------------------------------|
B|-----0-------0-------0-------0-------3-------3-------3-------3-----------|
G|-----0-------0-------0-------0-------0-------0-------0-------0-----------|
D|-------------------------------------------------------------------------|
A|-------------------------------------------------------------------------|
E|-3-------3-------3-------3-------3-------3-------3-------3---------------|
   Blame…

     C                             Em
e|-------------------------------------------------------------------------|
B|-----1-------1------1------1p0------0------0-------0------0h1------------|
G|-----0-------0------0------0--------0------0-------0------0--------------|
D|--------------------------------2------2------2-------2------------------|
A|-3-------3------3------3-------------------------------------------------|
E|-------------------------------------------------------------------------|
       Hey there Delilah you be good and don’t you miss me…

    C                             Em
e|-------------------------------------------------------------------------|
B|-----1-------1------1------1p0------0------0-------0------0h1------------|
G|-----0-------0------0------0--------0------0-------0------0--------------|
D|--------------------------------2------2------2-------2------------------|
A|-3-------3------3------3-------------------------------------------------|
E|-------------------------------------------------------------------------|
Two more years and you’ll be done with school and I’ll be makin history like…

  Am                              F                   G
e|-------------------------------------------------------------------------|
B|-----1-------1-------1-----------------------------------3---------3-----|
G|-----2-------2-------2---0-----------2---------2---------0---------0-----|
D|-------------------------------------3---------3-------------------------|
A|-0-------0-------0-------------------------------------------------------|
E|---------------------------------1--------1---------3---------3----------|
   I Do…                                we’ll know it’s all because of …

  Am                              F                   G
e|-------------------------------------------------------------------------|
B|-----1-------1-------1-----------------------------------3---------3-----|
G|-----2-------2-------2---0-----------2---------2---------0---------0-----|
D|-------------------------------------3---------3-------------------------|
A|-0-------0-------0-------------------------------------------------------|
E|---------------------------------1--------1---------3---------3----------|
   you…                            we can do whatever we want…

  Am                              F                   G
e|-------------------------------------------------------------------------|
B|-----1-------1-------1-----------------------------------3---------3-----|
G|-----2-------2-------2---0-----------2---------2---------0---------0-----|
D|-------------------------------------3---------3-------------------------|
A|-0-------0-------0-------------------------------------------------------|
E|---------------------------------1--------1---------3---------3----------|
   to…                            Hey there Delilah here’s to you…

   Am                               G
e|-------------------------------------------------------------------------|
B|-----1-------1-------1-------1-------0-------0-------3-------3-----------|
G|-----2-------2-------2-------2-------0-------0-------0-------0-----------|
D|-------------------------------------------------------------------------|
A|-0-------0-------0-------0-----------------------------------------------|
E|---------------------------------3-------3-------3-------3---------------|
  To…                              This one’s for you…


CHORUS: (repeat 4 times)

   C                              Am
e|---------------------------------------------------------------------------|
B|-----1-------1------1------1--------1------1-------1------1----------------|
G|-----0-------0------0------0--------2------2-------2------2----------------|
D|---------------------------------------------------------------------------|
A|-3-------3------3------3--------0------0------0-------0--------------------|
E|---------------------------------------------------------------------------|
   Oooooh      it’s what you do to meeeee


| /  slide up
| \  slide down
| h  hammer-on
| p  pull-off
| ~  vibrato
| +  harmonic
| x  Mute note
=============================================================================

            
            
Suggest correction
Creating personal tab
Creating personal tab
You can edit any tab online and save it as your Personal.

You can edit, replace or remove any tab part or add personal notes – all changes will be seen only by you.

Personal tabs can be accessed anytime from any device, even offline.
Learn more »
comments
print report bad tab
11 comments total. Showing first comments.
+2 reply
VomitFace 10 Jun 16, 2008 08:58 PM

Thank you ! This is very simple and sounds great! , you did a GREAT a job!

0 reply
PederBurger 52 Jul 06, 2008 08:18 PM

Appreaciated

0 reply
lozza69 10 Jul 19, 2008 05:27 AM

Brilliant!! Can't wait to try it out on my friends!! Thanks

guest
You may want to rate the tab now too:
select rating
Wanna post a correction for this tab? Suggest correction