Oops, an error
Loading. Please wait.
We have an official Hey There Delilah tab made by UG professional guitarists. Check out the tab »
×

Hey There Delilah tab

3,451 views 114 this week
2 commentsread comments
1 2 3 4 5
x 5
add to favorites
×
Save as Personal and add changes to this tab that will be seen only by you. Learn more ›
×
You can save this tab as Personal to edit and correct it or add notes. All changes will be seen only by you. Learn more »
launch autoscroll
font size
0
reset
how to read this tab
guitar tuner
edit
Autoscroll
slow
fast
+/-
esc
set tempo
stop
About this tab version
This is a simpler vertion I made using the same notes, Its capoed on 2 and the hand shapes/ transitions are easier than the traditional vertions. Was this info helpful? Yes No
Hey There Delilah Tabs  - Capo on 2

Intro
e |--------------------------------------------------------------------|
B |-------1-------1-------1-------1-------0-------0--------0-------0---|
G |-------0-------0-------0-------0-------0-------0--------0-------0---|
D |-----------------------------------2-------2--------2-------2-------|
A |---3-------3-------3-------3----------------------------------------|
E |--------------------------------------------------------------------| X2   

Verse 1 & 2
e |--------------------------------------------------------------------|
B |-------1-------1-------1-------1-------0-------0-------0-------0----|
G |-------0-------0-------0-------0-------0-------0-------0-------0----|
D |-----------------------------------2-------2-------2-------2--------|
A |---3-------3-------3-------3----------------------------------------|
E |--------------------------------------------------------------------| X2

e |--------------------------------------------------------------------|
B |-------1-------1-------1---------------1-------1-------0-------0----|
G |-------2-------2-------2---------------2-------2-------0-------0----|
D |--------------------------------------------------------------------|
A |---0-------0-------0------------------------------------------------|
E |---------------------------3-------1-------1-------3-------3--------|

e |--------------------------------------------------------------------|
B |-------1-------1-------1---------------0-------0-------3-------3----|
G |-------2-------2-------2---------------0-------0-------0-------0----|
D |--------------------------------------------------------------------|
A |---0-------0-------0------------------------------------------------|
E |---------------------------3-------3-------3-------3-------3--------|

Chorus 1
e |--------------------------------------------------------------------|
B |-------1-------1-------1---------------1-------1-------1------------|
G |-------0-------0-------0---------------2-------2-------2------------|
D |--------------------------------------------------------------------|
A |---3-------3-------3---------------0-------0-------0-------2--------|
E |---------------------------3----------------------------------------| X5

Chorus 2
e |--------------------------------------------------------------------|
B |-------1-------1-------1---------------1-------1-------1------------|
G |-------0-------0-------0---------------2-------2-------2------------|
D |--------------------------------------------------------------------|
A |---3-------3-------3---------------0-------0-------0-------2--------|
E |---------------------------3----------------------------------------| X4

Bridge
e |--------------------------------------------------------------------|
B |---1---1---1---1---0---0---0---0---1---1---1---1---1---1---1---1----|
G |---2---2---2---2---0---0---0---0---0---0---0---0---2---2---2---2----|
D |--------------------------------------------------------------------|
A |---------------------------------3---3---3---3---0---0---0---0------|
E |-1---1---1---1---3---3---3---3--------------------------------------| X2

e |--------------------------------------------------------------------|
B |---1---1---1---1---0---0---0---0---1---1---1---1---1---1---1---1----|
G |---2---2---2---2---0---0---0---0---2---2---2---2---2---2---2---2----|
D |--------------------------------------------------------------------|
A |---------------------------------0---0---0---0---0---0---0---0------|
E |-1---1---1---1---3---3---3---3--------------------------------------|   

e |--------------------------------------------------------------------|
B |---0---0---0---0---3---3---3---3------------------------------------|
G |---0---0---0---0---0---0---0---0------------------------------------|
D |--------------------------------------------------------------------|
A |--------------------------------------------------------------------|
E |-3---3---3---3---3---3---3---3--------------------------------------|   


Verse 3
e |--------------------------------------------------------------------|
B |-------1-------1-------1-------1-------0-------0--------0-------0---|
G |-------0-------0-------0-------0-------0-------0--------0-------0---|
D |-----------------------------------2--------2-------2-------2-------|
A |---3-------3-------3-------3----------------------------------------|
E |--------------------------------------------------------------------| X2

e |--------------------------------------------------------------------|
B |-------1-------1-------1----------------1-------1-------0-------0---|
G |-------2-------2-------2----------------2-------2-------0-------0---|
D |--------------------------------------------------------------------|
A |---0-------0-------0------------------------------------------------|
E |---------------------------3--------1-------1-------3-------3-------| X3

e |---------------------------------------------------------------------------------------------------|
B |-------1-------1-------1---------------0-------0-------0-------0-------3-------3-------3-------3---|
G |-------2-------2-------2---------------0-------0-------0-------0-------0-------0-------0-------0---|
D |---------------------------------------------------------------------------------------------------|
A |---0-------0-------0-------------------------------------------------------------------------------|
E |---------------------------3-------3-------3-------3-------3-------3-------3-------3-------3-------|


Chorus 3
e |--------------------------------------------------------------------|
B |-------1-------1-------1---------------1-------1-------1------------|
G |-------0-------0-------0---------------2-------2-------2------------|
D |--------------------------------------------------------------------|
A |---3-------3-------3---------------0-------0-------0-------2--------|
E |---------------------------3----------------------------------------| X8 (X5 with words x3 to fade out)




[Verse 1]

Hey there Delilah, 
What's it like in New York City?
I'm a thousand miles away
But girl tonight you look so pretty yes you do
Times Square can't shine as bright as you
I swear it's true

Hey there Delilah, 
Don't you worry about the distance
I'm right there if you get lonely
Give this song another listen
Close your eyes
Listen to my voice it's my disguise
I'm by your side

[Chorus 1]

Oh it's what you do to me, 
Oh it's what you do to me, 
Oh it's what you do to me, 
Oh it's what you do to me, 
What you do to me

[Verse 2]

Hey there Delilah, 
I know times are getting hard
But just believe me girl, 
Someday I'll pay the bills with this guitar
We'll have it good, 
We'll have the life we knew we would
My word is good

Hey there Delilah, 
I've got so much left to say, 
If every simple song I wrote to you
Would take your breath away
I'd write it all, 
Even more in love with me you'd fall
We'd have it all

[Chorus 2]

Oh it's what you do to me, 
Oh it's what you do to me, 
Oh it's what you do to me, 
Oh it's what you do to me

[Bridge]

A thousand miles seems pretty far, 
But they've got planes and trains and cars
I'd walk to you if I had no other way.
Our friends would all make fun of us 
And we'll just laugh along because
We know that none of them have felt this way
Delilah I can promise you
That by the time we get through
The world will never ever be the same
And you're to blame

[Verse 3]

Hey there Delilah, 
You be good and don't you miss me
Two more years and you'll be done with school
And I'll be making history like I do
You know it's all because of you
We can make all our dreams come true
Hey there Delilah here's to you
This one's for you

[Chorus 3]

Oh It's what you do to me! 
Oh it's what you do to me! 
Oh it's what you do to me! 
Oh it's what you do to me! 
Oh it's what you do to me! 
What you do to me.

            
            
Suggest correction
Creating personal tab
Creating personal tab
You can edit any tab online and save it as your Personal.

You can edit, replace or remove any tab part or add personal notes – all changes will be seen only by you.

Personal tabs can be accessed anytime from any device, even offline.
Learn more »
comments
print report bad tab
2 comments total.
0 reply
jacobwieteska 12 Sep 14, 2016 10:18 PM

didn't like this contribution

guest
You may want to rate the tab now too:
select rating
Wanna post a correction for this tab? Suggest correction