Oops, an error
Loading. Please wait.

Las Call bass

908 views 1 this week
no commentswrite comment
1 2 3 4 5
3 more votes to show rating
add to favorites
×
Save as Personal and add changes to this tab that will be seen only by you. Learn more ›
×
You can save this tab as Personal to edit and correct it or add notes. All changes will be seen only by you. Learn more »
launch autoscroll
font size
0
reset
guitar tuner
edit
Autoscroll
slow
fast
+/-
esc
set tempo
stop
Author
Artist: Plain White T's
Song: Last Call
Album: All That We Needed

Here's the bass tab for this awsome some, i hope u like it... it's pretty easy
(Aqui está el bajo de esta hermosa canción de los plain white t's espero que les 
está muy fácil)

Notes: C# B  A

A-4: C#
A-0: A
A-2: B

Intro
G---------------------------------------------|
D---------------------------------------------|
A-4-4-44440-0-00002-2-2222-000-222------------|x2
E---------------------------------------------|

G-----------------------------------------------------------------------|
D-----------------------------------------------------------------------|
A-4-4-444-0-0-000-2-2-222-000-20-4-4-444-000-222-(4)--------------------|
E-----------------------------------------------------------------------|

Verse (Verso)
G--------------------------------------------------------------------------|
D--------------------------------------------------------------------------|
A-4-4444444444-0-000000000-2-222222-000-20-(4)---20-0-02(4)----------------|x2
E--------------------------------------------------------------------------|

G-------------------------------------------------------------------------|
D-------------------------------------------------------------------------|
A-4-4444444444-0-000000000-2-222222-0-0-20-000000-2222222-----------------|x2
E-------------------------------------------------------------------------|

Chorus (Coro)
G---------------------------------------------|
D---------------------------------------------|
A-4-4-44440-0-00002-2-2222-000-20-------------|x2
E---------------------------------------------|

G-----------------------------------------------------------------------|
D-----------------------------------------------------------------------|
A-4-4-444-0-0-000-2-2-222-000-20-4-4-444-000-222-(4)--------------------|
E-----------------------------------------------------------------------|

Verse (Verso)
G--------------------------------------------------------------------------|
D--------------------------------------------------------------------------|
A-4-4444444444-0-000000000-2-222222-000-20-(4)---20-0-02(4)----------------|x2
E--------------------------------------------------------------------------|

G-------------------------------------------------------------------------|
D-------------------------------------------------------------------------|
A-4-4444444444-0-000000000-2-222222-0-0-20-000000-2222222-----------------|x2
E-------------------------------------------------------------------------|

Chorus (Coro)
G---------------------------------------------|
D---------------------------------------------|
A-4-4-44440-0-00002-2-2222-000-20-------------|x2
E---------------------------------------------|

G-----------------------------------------------------------------------|
D-----------------------------------------------------------------------|
A-4-4-444-0-0-000-2-2-222-000-20-4-4-444-000-222-(4)--------------------|
E-----------------------------------------------------------------------|

Bridge (Puente)
G------------------------------------------------------------------------|
D------------------------------------------------------------------------|
A-00000000000000000-2222222222222-00000000000000000-2222222222222--------|
E------------------------------------------------------------------------|

G---------------------------------------------|
D---------------------------------------------|
A-4-4-44440-0-00002-2-2222-000-222------------|x3
E---------------------------------------------|

G-----------------------------------------------------------------|
D-----------------------------------------------------------------|
A-4-4-44440-0-00002-2-2222-00-000000000000-22222222222222222------|
E-----------------------------------------------------------------|

Just Drums No Bass (2:08)-(2:21)
(Pura bateria no hay bajo)

Outro
G---------------------------------------------|
D---------------------------------------------|
A-4-4-44440-0-00002-2-2222-000-20-------------|x4
E---------------------------------------------|

G-----------------------------------------|
D-----------------------------------------|
A-0-0-0-0-0-000-2-0-0-0-0-0-000-2-0-(0)---|
E-----------------------------------------|

Well.. thats the whole bass part of the song, its a nice song and i hope u like the tab!
Bueno... esa es toda el bajeo de la canción, esta muy chida esa cancion y espero que les guste el tab.

Saludos a todas las banads de cozumel y en especial a mi banda (Lurk) a raul, camacho y joanna...

Fudación Cureño Basurto.
Any Question or comment: axj66@hotmail.com
Cualquier duda o comentario: axj66@hotmail.com
Plain White T's Rocks!!!

            
            
Suggest correction
Creating personal tab
Creating personal tab
You can edit any tab online and save it as your Personal.

You can edit, replace or remove any tab part or add personal notes – all changes will be seen only by you.

Personal tabs can be accessed anytime from any device, even offline.
Learn more »
Give kudos to tab author, rate the tab!
1 2 3 4 5
comments
print report bad tab
guest
You may want to rate the tab now too:
select rating
Wanna post a correction for this tab? Suggest correction