Oops, an error
Loading. Please wait.

Let Me Take You There tab

version 2
version 2

Whole song

Interactive

27,405 views 1 this week
12 commentsread comments
1 2 3 4 5
x 18
add to favorites
×
Save as Personal and add changes to this tab that will be seen only by you. Learn more ›
×
You can save this tab as Personal to edit and correct it or add notes. All changes will be seen only by you. Learn more »
launch autoscroll
font size
0
reset
how to read this tab
guitar tuner
edit
Autoscroll
slow
fast
+/-
esc
set tempo
stop
Author
Difficulty
#----------------------------------PLEASE NOTE---------------------------------#
#This file is the author's own work and represents their interpretation of the #
#song. You may only use this file for private study, scholarship, or research. #
#------------------------------------------------------------------------------##

                              LET ME TAKE YOU THERE
                         As recorded by Plain White T's
                    (From the 2007 Album EVERY SECOND COUNTS)

Tabbed by Emilio Ramos
Email: Not posting it here, if you want, talk to me in the comments or at my profile: ricosuave413

        This is my first song that I have tabbed however my second go at it. My first attempt
god awful. This time around, I used a program for Macintosh called dJay. This handy
app, available here: http://www.algoriddim.net/download/index.html, lets you manipulate 
Using dJay, I was able to slow the song down but retain the normal pitch. This let me
the exact notes being played. For this reason I'm pretty sure that this song is right 
I'm open for discussion in the comments. Enjoy.

NOTE: I only tabbed the 1st guitar. However, the second guitar just plays the same
A, E, F#m, D In that order. The bass follows the same progression. Guitar 2 comes in on
(with a small build sometimes at the end of the verse and in the bridge. It shouldn't be 
dificult ot pick it out by your lonesome :).


Gtr I (E A D G B e) - 'Clean Electric'
Gtr II (E A D G B e) - 'Electric w/ Dist.'

  Q=64


  Gtr I

Verse:

  S  S S S  S S S  S S S  S S S  S S S   S S S S S S S S S S S S S S S S
e|-7------7------7------7------7--------|-7-----7-----7-----7-----7-------|
B|---10-----10-----10-----10-----10-----|---9-----9-----9-----9-----9-----|
G|------9------9------9------9------9---|-----9-----9-----9-----9-----9---|
D|--------------------------------------|---------------------------------|
A|--------------------------------------|---------------------------------|
E|--------------------------------------|---------------------------------|


  S  S  S S  S  S S  S  S S  S  S S  S  S S   S S S S S S S S S S S S S S S S
e|-9-------9-------9-------9-------9---------|-5-----5-----5-----5-----5-------|
B|---12------12------12------12------12------|---7-----7-----7-----7-----7-----|
G|------11------11------11------11------11---|-----7-----7-----7-----7-----7---|  x2
D|-------------------------------------------|---------------------------------|
A|-------------------------------------------|---------------------------------|
E|-------------------------------------------|---------------------------------|

Chorus:

  S  S S S  S S E   S S S S S S E   S  S  S S  S  S E   S S S S S S E
e|-7------7------7---7-----7-----7-|-9-------9-------9---5-----5-----5-|
B|---10-----10---------9-----9-----|---12------12----------7-----7-----|
G|------9------9---------9-----9---|------11------11---------7-----7---|  x2
D|---------------------------------|-----------------------------------|
A|---------------------------------|-----------------------------------|
E|---------------------------------|-----------------------------------|


Verse 2:

  S  S S S  S S S  S S S  S S S  S S S   S S S S S S S S S S S S S S S S
e|-7------7------7------7------7--------|-7-----7-----7-----7-----7-------|
B|---10-----10-----10-----10-----10-----|---9-----9-----9-----9-----9-----|
G|------9------9------9------9------9---|-----9-----9-----9-----9-----9---|
D|--------------------------------------|---------------------------------|
A|--------------------------------------|---------------------------------|
E|--------------------------------------|---------------------------------|


  S  S  S S  S  S S  S  S S  S  S S  S  S S   S S S S S S S S S S S S S S S S
e|-9-------9-------9-------9-------9---------|-5-----5-----5-----5-----5-------|
B|---12------12------12------12------12------|---7-----7-----7-----7-----7-----|
G|------11------11------11------11------11---|-----7-----7-----7-----7-----7---|  x2
D|-------------------------------------------|---------------------------------|
A|-------------------------------------------|---------------------------------|
E|-------------------------------------------|---------------------------------|


Chorus:

  S  S S S  S S E S S S S S S E   S  S  S S  S  S E S S S S S S E
e|-7------7------7-7-----7-----7-|-9-------9-------9-5-----5-----5-|
B|---10-----10-------9-----9-----|---12------12--------7-----7-----|
G|------9------9-------9-----9---|------11------11-------7-----7---|  x4
D|-------------------------------|---------------------------------|
A|-------------------------------|---------------------------------|
E|-------------------------------|---------------------------------|


Bridge:
(Just Play these chords in time with the second guitar)

e|--7----|-7----|
B|-10----|-9----|
G|--9----|-9----|
D|-------|------|
A|-------|------|
E|-------|------|

e|--9----|-5----|
B|-12----|-7----|
G|-11----|-7----|  x2
D|-------|------|
A|-------|------|
E|-------|------|


Verse 3:

  S  S S S  S S S  S S S  S S S  S S S   S S S S S S S S S S S S S S S S
e|-7------7------7------7------7--------|-7-----7-----7-----7-----7-------|
B|---10-----10-----10-----10-----10-----|---9-----9-----9-----9-----9-----|
G|------9------9------9------9------9---|-----9-----9-----9-----9-----9---|
D|--------------------------------------|---------------------------------|
A|--------------------------------------|---------------------------------|
E|--------------------------------------|---------------------------------|


  S  S  S S  S  S S  S  S S  S  S S  S  S S   S S S S S S S S S S S S S S S S
e|-9-------9-------9-------9-------9---------|-5-----5-----5-----5-----5-------|
B|---12------12------12------12------12------|---7-----7-----7-----7-----7-----|
G|------11------11------11------11------11---|-----7-----7-----7-----7-----7---|
D|-------------------------------------------|---------------------------------|
A|-------------------------------------------|---------------------------------|
E|-------------------------------------------|---------------------------------|


Chorus:

  S  S S S  S S E S S S S S S E   S  S  S S  S  S E S S S S S S E
e|-7------7------7-7-----7-----7-|-9-------9-------9-5-----5-----5-|
B|---10-----10-------9-----9-----|---12------12--------7-----7-----|
G|------9------9-------9-----9---|------11------11-------7-----7---|  x4
D|-------------------------------|---------------------------------|
A|-------------------------------|---------------------------------|
E|-------------------------------|---------------------------------|


Outro (same as bridge):

e|--7----|-7----|
B|-10----|-9----|
G|--9----|-9----|
D|-------|------|
A|-------|------|
E|-------|------|

e|--9----|-5----|
B|-12----|-7----|
G|-11----|-7----|  x2
D|-------|------|
A|-------|------|
E|-------|------|


  S  S S S  S S S  S S S  S S S  S S S
e|-7------7------7------7------7--------*|
B|---10-----10-----10-----10-----10-----*|
G|------9------9------9------9------9---*|
D|--------------------------------------*|
A|--------------------------------------*|
E|--------------------------------------*|


Duration Legend
---------------
W - whole; H - half; Q - quarter; E - 8th; S - 16th; T - 32nd; X - 64th


Misc Legend
-----------
 |  - bar
||  - double bar
||o - repeat start
o|| - repeat end
*|  - double bar (ending)
 :  - bar (freetime)
 $  - Segno
 &  - Coda
Tempo markers -  = BPM(8/16=s8/s16), where s8 = swing 8ths, s16 = swing 16ths
Suggest correction
Creating personal tab
Creating personal tab
You can edit any tab online and save it as your Personal.

You can edit, replace or remove any tab part or add personal notes – all changes will be seen only by you.

Personal tabs can be accessed anytime from any device, even offline.
Learn more »
comments
print report bad tab
12 comments total. Showing first comments.
+1 reply
fret13 1,031 Aug 21, 2007 06:48 AM

kudos way better and more organized than mine. you could copy paste my guitar 2 part into yours if you want to make it look more complete.

+2 reply
garyrjb 37 Sep 09, 2007 03:07 PM

HEY EXCELLENT FIRST TAB really helped me out. thanks just one difference of opinion the third chord you have written 9 12 11 and i believe it should be 9 10 11.
only a little point not meant as a dig as I wouldnt have even got the song as it was I can now play it 5 mins later thanks

0 reply
ricosuave413 51 Sep 29, 2007 04:46 PM

which chord in the progression is it? is it the 7-10-9, or the 7-9-9?

guest
You may want to rate the tab now too:
select rating
Wanna post a correction for this tab? Suggest correction