Oops, an error
Loading. Please wait.

My Only One bass

2,714 views 1 this week
1 commentread comment
1 2 3 4 5
x 4
add to favorites
×
Save as Personal and add changes to this tab that will be seen only by you. Learn more ›
×
You can save this tab as Personal to edit and correct it or add notes. All changes will be seen only by you. Learn more »
launch autoscroll
font size
0
reset
guitar tuner
edit
Autoscroll
slow
fast
+/-
esc
set tempo
stop
Difficulty
This is a great song and I am suprised no one has allready put it up on guitar which ill 
on after this. This is my first tab so no harsh comments please, if you can resist!? thanks!
there is a bar before the bass comes in wiht the drum playing the bass drum to a 4/4 beat

Intro
G\-------------------------------------/
D\------4-4------2-2------4-4------4-4-/ X 4
A\-2-2-2----2-2-2----0-0-0----2-2-2----/
E\-------------------------------------/

Verse
G\------------------------------------------------/     \------/
D\-------------------------22-22------------------/ X 2 \-20---/
A\-22-22-22-22-55-55-55-55------44-44-22-22-22-22-/     \---40-/
E\------------------------------------------------/     \------/

Chorus
G\-------------------------------------/
D\-22222222-------------------------20-/
A\---------00000000-2222222222222222--4/
E\-------------------------------------/

G\--------------------------------------/
D\-22222222-----------------4444444420--/
A\---------00000000-44444444----------4-/
E\--------------------------------------/

Pre-Verse
G\----------------------------/
D\------4-4------2-2------4-4-/
A\-2-2-2----2-2-2----0-0-0----/
E\----------------------------/

Verse
G\------------------------------------------------/
D\-------------------------22-22------------------/
A\-22-22-22-22-55-55-55-55------44-44-22-22-22-22-/
E\------------------------------------------------/
 X 1 then:
G/-----------------------------------------------------------------------/
D/---------------------------------22222222------------------------20----/
A/-22222222222222225555555555555555--------444444442222222222222222--4---/
E/-----------------------------------------------------------------------/

Instrumental ( i cant sort out cos of guitar over top )

Intro X 2

Chorus

Intro X 2

and there you have it, soz i couldnt do the instrumental
larry

            
            
Suggest correction
Creating personal tab
Creating personal tab
You can edit any tab online and save it as your Personal.

You can edit, replace or remove any tab part or add personal notes – all changes will be seen only by you.

Personal tabs can be accessed anytime from any device, even offline.
Learn more »
comments
print report bad tab
1 comment total.
0 reply
sucker_love_bex 10 Sep 04, 2007 11:27 AM

intros right but as for the rest.. not too sure but good try

guest
Wanna post a correction for this tab? Suggest correction