Oops, an error
Loading. Please wait.

My Only One tab

3,123 views 3 this week
no commentswrite comment
1 2 3 4 5
x 3
add to favorites
×
Save as Personal and add changes to this tab that will be seen only by you. Learn more ›
×
You can save this tab as Personal to edit and correct it or add notes. All changes will be seen only by you. Learn more »
launch autoscroll
font size
0
reset
how to read this tab
guitar tuner
edit
Autoscroll
slow
fast
+/-
esc
set tempo
stop
Author
Difficulty
----------------------------------------------------------------------------
                             My Only One - Plain White T's
----------------------------------------------------------------------------

Tabbed by:Kasper van Dijk
Email:kasperkaratekid@hotmail.com

Tuning:E-A-D-G-B-e
 

                              
e|-------------------------------------------------------------------------|
B|-------------------------------------------------------------------------|
G|-----7---7------11--------7---7------9-------6---6------11--------7---7--|
D|-7/9---9--------------7/9---9--------------7---7--------------7/9---9----|
A|-----------9/12----12-----------9/10---10----------7/12----12------------|
E|-------------------------------------------------------------------------|

e|--------------|
B|--------------|
G|-------11-----|   x2
D|--------------|
A|--9/12----12--|
E|--------------|

                    Oh please don't go, I need you. 
e|--x-x-x---x-x-x-----x-x-x---x-x-x-----x-x-x---x-x-x-----x-x-x---x-x-x----|
B|--x-x-x---x-x-x-----x-x-x---x-x-x-----x-x-x---x-x-x-----x-x-x---x-x-x----|
G|--4-4-x---4-4-x-----4-4-x---4-4-x-----4-4-x---4-4-x-----4-4-x---4-4-x----|
D|--4-4-x---4-4-x-----4-4-x---4-4-x-----4-4-x---4-4-x-----4-4-x---4-4-x----|
A|--2-2-x---2-2-x-----2-2-x---2-2-x-----2-2-x---2-2-x-----2-2-x---2-2-x----|
E|--x-x-x---x-x-x-----x-x-x---x-x-x-----x-x-x---x-x-x-----x-x-x---x-x-x----|

                    I'll please you, not mislead you
e|--x-x-x---x-x-x-----x-x-x---x-x-x-----x-x-x---x-x-x-----x-x-x---x-x-x----|
B|--x-x-x---x-x-x-----x-x-x---x-x-x-----x-x-x---x-x-x-----x-x-x---x-x-x----|
G|--x-x-x---x-x-x-----x-x-x---x-x-x-----x-x-x---x-x-x-----x-x-x---x-x-x----|
D|--5-5-x---5-5-x-----5-5-x---5-5-x-----5-5-x---5-5-x-----5-5-x---5-5-x----|
A|--5-5-x---5-5-x-----5-5-x---5-5-x-----5-5-x---5-5-x-----5-5-x---5-5-x----|
E|--3-3-x---3-3-x-----3-3-x---3-3-x-----3-3-x---3-3-x-----3-3-x---3-3-x----|

                          If you would be my only
e|--x-x-x---x-x-x-----x-x-x---x-x-x-----x-x-x---x-x-x-----x-x-x---x-x-x----|
B|--x-x-x---x-x-x-----x-x-x---x-x-x-----x-x-x---x-x-x-----x-x-x---x-x-x----|
G|--x-x-x---x-x-x-----x-x-x---x-x-x-----x-x-x---x-x-x-----x-x-x---x-x-x----|
D|--7-7-7---7-7-7-----7-7-7---7-7-7-----4-4-4---4-4-4-----4-4-4---4-4-4----|
A|--7-7-7---7-7-7-----7-7-7---7-7-7-----4-4-4---4-4-4-----4-4-4---4-4-4----|
E|--5-5-5---5-5-5-----5-5-5---5-5-5-----2-2-2---2-2-2-----2-2-2---2-2-2----|
          
                     One.
e|--x-x-x---x-x-x-----x-x-x---x-x-x-----x-x-x---x-x-x---x-x-x-x--|
B|--x-x-x---x-x-x-----x-x-x---x-x-x-----x-x-x---x-x-x---x-x-x-x--|
G|--4-4-x---4-4-x-----4-4-x---4-4-x-----4-4-x---4-4-x---4-x-x-x--|
D|--4-4-x---4-4-x-----4-4-x---4-4-x-----4-4-x---4-4-x---4-4-4-4--|
A|--2-2-x---2-2-x-----2-2-x---2-2-x-----2-2-x---2-2-x---2-4-4-4--|
E|--x-x-x---x-x-x-----x-x-x---x-x-x-----x-x-x---x-x-x---x-2-2-2--|

                         Together we move slowly.
e|--x-x-x---x-x-x-----x-x-x---x-x-x-----x-x-x---x-x-x-----x-x-x---x-x-x----|
B|--x-x-x---x-x-x-----x-x-x---x-x-x-----x-x-x---x-x-x-----x-x-x---x-x-x----|
G|--4-4-x---4-4-x-----4-4-x---4-4-x-----4-4-x---4-4-x-----4-4-x---4-4-x----|
D|--4-4-x---4-4-x-----4-4-x---4-4-x-----4-4-x---4-4-x-----4-4-x---4-4-x----|
A|--2-2-x---2-2-x-----2-2-x---2-2-x-----2-2-x---2-2-x-----2-2-x---2-2-x----|
E|--x-x-x---x-x-x-----x-x-x---x-x-x-----x-x-x---x-x-x-----x-x-x---x-x-x----|

                       I'll never leave you lonely
e|--x-x-x---x-x-x-----x-x-x---x-x-x-----x-x-x---x-x-x-----x-x-x---x-x-x----|
B|--x-x-x---x-x-x-----x-x-x---x-x-x-----x-x-x---x-x-x-----x-x-x---x-x-x----|
G|--x-x-x---x-x-x-----x-x-x---x-x-x-----x-x-x---x-x-x-----x-x-x---x-x-x----|
D|--5-5-x---5-5-x-----5-5-x---5-5-x-----5-5-x---5-5-x-----5-5-x---5-5-x----|
A|--5-5-x---5-5-x-----5-5-x---5-5-x-----5-5-x---5-5-x-----5-5-x---5-5-x----|
E|--3-3-x---3-3-x-----3-3-x---3-3-x-----3-3-x---3-3-x-----3-3-x---3-3-x----|

                      If you would be my only
e|--x-x-x---x-x-x-----x-x-x---x-x-x-----x-x-x---x-x-x-----x-x-x---x-x-x----|
B|--x-x-x---x-x-x-----x-x-x---x-x-x-----x-x-x---x-x-x-----x-x-x---x-x-x----|
G|--x-x-x---x-x-x-----x-x-x---x-x-x-----x-x-x---x-x-x-----x-x-x---x-x-x----|
D|--7-7-7---7-7-7-----7-7-7---7-7-7-----4-4-4---4-4-4-----4-4-4---4-4-4----|
A|--7-7-7---7-7-7-----7-7-7---7-7-7-----4-4-4---4-4-4-----4-4-4---4-4-4----|
E|--5-5-5---5-5-5-----5-5-5---5-5-5-----2-2-2---2-2-2-----2-2-2---2-2-2----|

                   One.                                    If you
e|--x-x-x---x-x-x-----x-x-x---x-x-x-----x-x-x---x-x-x-----x-x-x-x--|
B|--x-x-x---x-x-x-----x-x-x---x-x-x-----x-x-x---x-x-x-----x-x-x-x--|
G|--4-4-x---4-4-x-----4-4-x---4-4-x-----4-4-x---4-4-x-----4-4-4-4--|
D|--4-4-x---4-4-x-----4-4-x---4-4-x-----4-4-x---4-4-x-----4-4-4-4--|
A|--2-2-x---2-2-x-----2-2-x---2-2-x-----2-2-x---2-2-x-----2-2-2-2--|
E|--x-x-x---x-x-x-----x-x-x---x-x-x-----x-x-x---x-x-x-----x-x-x-x--|

                     believe we were meant to be,
e|-7-7-7-7-7-7-7-7-5-5-5-5-5-5-5-5-10-10-10-10-10-10-10-10-7-7-7-7-7-7-7-7-|
B|-8-8-8-8-8-8-8-8-5-5-5-5-5-5-5-5-10-10-10-10-10-10-10-10-7-7-7-7-7-7-7-7-|
G|-9-9-9-9-9-9-9-9-6-6-6-6-6-6-6-6-11-11-11-11-11-11-11-11-7-7-7-7-7-7-7-7-|
D|-9-9-9-9-9-9-9-9-7-7-7-7-7-7-7-7-12-12-12-12-12-12-12-12-9-9-9-9-9-9-9-9-|
A|-7-7-7-7-7-7-7-7-7-7-7-7-7-7-7-7-12-12-12-12-12-12-12-12-9-9-9-9-9-9-9-9-|
E|-x-x-x-x-x-x-x-x-5-5-5-5-5-5-5-5-10-10-10-10-10-10-10-10-7-7-7-7-7-7-7-7-|

                       Why'd you leave me alone?
e|-7-7-7-7-7-7-7-7-5-5-5-5-5-5-5-5-10-10-10-10-10-10-10-10-2-2-2-2-2-2-2-2-|
B|-8-8-8-8-8-8-8-8-5-5-5-5-5-5-5-5-10-10-10-10-10-10-10-10-2-2-2-2-2-2-2-2-|
G|-9-9-9-9-9-9-9-9-6-6-6-6-6-6-6-6-11-11-11-11-11-11-11-11-3-3-3-3-3-3-3-3-|
D|-9-9-9-9-9-9-9-9-7-7-7-7-7-7-7-7-12-12-12-12-12-12-12-12-4-4-4-4-4-4-4-4-|
A|-7-7-7-7-7-7-7-7-7-7-7-7-7-7-7-7-12-12-12-12-12-12-12-12-4-4-4-4-4-4-4-4-|
E|-x-x-x-x-x-x-x-x-5-5-5-5-5-5-5-5-10-10-10-10-10-10-10-10-2-2-2-2-2-2-2-2-|

e|------------------------------------------------------------|
B|------------------------------------------------------------|
G|-----7---7------11--------7---7------9-------6---6------11--|
D|-7/9---9--------------7/9---9--------------7---7------------|
A|-----------9/12----12-----------9/10---10----------7/12-----|
E|------------------------------------------------------------|

                       What hapened to forever?
e|--x-x-x---x-x-x-----x-x-x---x-x-x-----x-x-x---x-x-x-----x-x-x---x-x-x----|
B|--x-x-x---x-x-x-----x-x-x---x-x-x-----x-x-x---x-x-x-----x-x-x---x-x-x----|
G|--4-4-x---4-4-x-----4-4-x---4-4-x-----4-4-x---4-4-x-----4-4-x---4-4-x----|
D|--4-4-x---4-4-x-----4-4-x---4-4-x-----4-4-x---4-4-x-----4-4-x---4-4-x----|
A|--2-2-x---2-2-x-----2-2-x---2-2-x-----2-2-x---2-2-x-----2-2-x---2-2-x----|
E|--x-x-x---x-x-x-----x-x-x---x-x-x-----x-x-x---x-x-x-----x-x-x---x-x-x----|

                     I'll try to make things better
e|--x-x-x---x-x-x-----x-x-x---x-x-x-----x-x-x---x-x-x-----x-x-x---x-x-x----|
B|--x-x-x---x-x-x-----x-x-x---x-x-x-----x-x-x---x-x-x-----x-x-x---x-x-x----|
G|--x-x-x---x-x-x-----x-x-x---x-x-x-----x-x-x---x-x-x-----x-x-x---x-x-x----|
D|--5-5-x---5-5-x-----5-5-x---5-5-x-----5-5-x---5-5-x-----5-5-x---5-5-x----|
A|--5-5-x---5-5-x-----5-5-x---5-5-x-----5-5-x---5-5-x-----5-5-x---5-5-x----|
E|--3-3-x---3-3-x-----3-3-x---3-3-x-----3-3-x---3-3-x-----3-3-x---3-3-x----|

                       If you would be my only
e|--x-x-x---x-x-x-----x-x-x---x-x-x-----x-x-x---x-x-x-----x-x-x---x-x-x----|
B|--x-x-x---x-x-x-----x-x-x---x-x-x-----x-x-x---x-x-x-----x-x-x---x-x-x----|
G|--x-x-x---x-x-x-----x-x-x---x-x-x-----x-x-x---x-x-x-----x-x-x---x-x-x----|
D|--7-7-7---7-7-7-----7-7-7---7-7-7-----4-4-4---4-4-4-----4-4-4---4-4-4----|
A|--7-7-7---7-7-7-----7-7-7---7-7-7-----4-4-4---4-4-4-----4-4-4---4-4-4----|
E|--5-5-5---5-5-5-----5-5-5---5-5-5-----2-2-2---2-2-2-----2-2-2---2-2-2----|

                               One.
e|--x-x-x---x-x-x-----x-x-x---x-x-x-----x-x-x---x-x-x---x-x-x-x--|
B|--x-x-x---x-x-x-----x-x-x---x-x-x-----x-x-x---x-x-x---x-x-x-x--|
G|--4-4-x---4-4-x-----4-4-x---4-4-x-----4-4-x---4-4-x---4-x-x-x--|
D|--4-4-x---4-4-x-----4-4-x---4-4-x-----4-4-x---4-4-x---4-4-4-4--|
A|--2-2-x---2-2-x-----2-2-x---2-2-x-----2-2-x---2-2-x---2-4-4-4--|
E|--x-x-x---x-x-x-----x-x-x---x-x-x-----x-x-x---x-x-x---x-2-2-2--|

  Now six days since we've spoken.   I'll fix you when you're broken
e|--x-x-x-x-x-x-x-x-x-x-x-x-x-x-x-x-x-x-x-x-x-x-x-x-x-x-x-x-x-x-x-x--|
B|--x-x-x-x-x-x-x-x-x-x-x-x-x-x-x-x-x-x-x-x-x-x-x-x-x-x-x-x-x-x-x-x--|
G|--4-4-4-4-4-4-4-4-4-4-4-4-4-4-4-4-4-4-4-4-4-4-4-4-4-4-4-4-4-4-4-4--|
D|--4-4-4-4-4-4-4-4-4-4-4-4-4-4-4-4-5-5-5-5-5-5-5-5-5-5-5-5-5-5-5-5--|
A|--2-2-2-2-2-2-2-2-2-2-2-2-2-2-2-2-5-5-5-5-5-5-5-5-5-5-5-5-5-5-5-5--|
E|--x-x-x-x-x-x-x-x-x-x-x-x-x-x-x-x-3-3-3-3-3-3-3-3-3-3-3-3-3-3-3-3--|

                        If you would be my only one.
e|--x-x-x-x-x-x-x-x-x-x-x-x-x-x-x-x-x-x-x-x-x-x-x-x-x-x-x-x-x-x-x-x--|
B|--x-x-x-x-x-x-x-x-x-x-x-x-x-x-x-x-x-x-x-x-x-x-x-x-x-x-x-x-x-x-x-x--|
G|--6-6-6-6-6-6-6-6-3-3-3-3-3-3-3-3-4-4-4-4-4-4-4-4-4-4-4-4-4-4-4-4--|
D|--7-7-7-7-7-7-7-7-4-4-4-4-4-4-4-4-4-4-4-4-4-4-4-4-4-4-4-4-4-4-4-4--|
A|--7-7-7-7-7-7-7-7-4-4-4-4-4-4-4-4-2-2-2-2-2-2-2-2-2-2-2-2-2-2-2-2--|
E|--5-5-5-5-5-5-5-5-2-2-2-2-2-2-2-2-x-x-x-x-x-x-x-x-x-x-x-x-x-x-x-x--|

                     If you believe we were meant to be,
e|-7-7-7-7-7-7-7-7-5-5-5-5-5-5-5-5-10-10-10-10-10-10-10-10-7-7-7-7-7-7-7-7-|
B|-8-8-8-8-8-8-8-8-5-5-5-5-5-5-5-5-10-10-10-10-10-10-10-10-7-7-7-7-7-7-7-7-|
G|-9-9-9-9-9-9-9-9-6-6-6-6-6-6-6-6-11-11-11-11-11-11-11-11-7-7-7-7-7-7-7-7-|
D|-9-9-9-9-9-9-9-9-7-7-7-7-7-7-7-7-12-12-12-12-12-12-12-12-9-9-9-9-9-9-9-9-|
A|-7-7-7-7-7-7-7-7-7-7-7-7-7-7-7-7-12-12-12-12-12-12-12-12-9-9-9-9-9-9-9-9-|
E|-x-x-x-x-x-x-x-x-5-5-5-5-5-5-5-5-10-10-10-10-10-10-10-10-7-7-7-7-7-7-7-7-|

                          Why'd you leave me alone?
e|-7-7-7-7-7-7-7-7-5-5-5-5-5-5-5-5-10-10-10-10-10-10-10-10-7-7-7-7-7-7-7-7-|
B|-8-8-8-8-8-8-8-8-5-5-5-5-5-5-5-5-10-10-10-10-10-10-10-10-7-7-7-7-7-7-7-7-|
G|-9-9-9-9-9-9-9-9-6-6-6-6-6-6-6-6-11-11-11-11-11-11-11-11-7-7-7-7-7-7-7-7-|
D|-9-9-9-9-9-9-9-9-7-7-7-7-7-7-7-7-12-12-12-12-12-12-12-12-9-9-9-9-9-9-9-9-|
A|-7-7-7-7-7-7-7-7-7-7-7-7-7-7-7-7-12-12-12-12-12-12-12-12-9-9-9-9-9-9-9-9-|
E|-x-x-x-x-x-x-x-x-5-5-5-5-5-5-5-5-10-10-10-10-10-10-10-10-7-7-7-7-7-7-7-7-|

                     If you believe we were meant to be,
e|-7-7-7-7-7-7-7-7-5-5-5-5-5-5-5-5-10-10-10-10-10-10-10-10-7-7-7-7-7-7-7-7-|
B|-8-8-8-8-8-8-8-8-5-5-5-5-5-5-5-5-10-10-10-10-10-10-10-10-7-7-7-7-7-7-7-7-|
G|-9-9-9-9-9-9-9-9-6-6-6-6-6-6-6-6-11-11-11-11-11-11-11-11-7-7-7-7-7-7-7-7-|
D|-9-9-9-9-9-9-9-9-7-7-7-7-7-7-7-7-12-12-12-12-12-12-12-12-9-9-9-9-9-9-9-9-|
A|-7-7-7-7-7-7-7-7-7-7-7-7-7-7-7-7-12-12-12-12-12-12-12-12-9-9-9-9-9-9-9-9-|
E|-x-x-x-x-x-x-x-x-5-5-5-5-5-5-5-5-10-10-10-10-10-10-10-10-7-7-7-7-7-7-7-7-|

                          Why'd you leave me alone?
e|-7-7-7-7-7-7-7-7-5-5-5-5-5-5-5-5-10-10-10-10-10-10-10-10-2-2-2-2-2-2-2-2-|
B|-8-8-8-8-8-8-8-8-5-5-5-5-5-5-5-5-10-10-10-10-10-10-10-10-2-2-2-2-2-2-2-2-|
G|-9-9-9-9-9-9-9-9-6-6-6-6-6-6-6-6-11-11-11-11-11-11-11-11-3-3-3-3-3-3-3-3-|
D|-9-9-9-9-9-9-9-9-7-7-7-7-7-7-7-7-12-12-12-12-12-12-12-12-4-4-4-4-4-4-4-4-|
A|-7-7-7-7-7-7-7-7-7-7-7-7-7-7-7-7-12-12-12-12-12-12-12-12-4-4-4-4-4-4-4-4-|
E|-x-x-x-x-x-x-x-x-5-5-5-5-5-5-5-5-10-10-10-10-10-10-10-10-2-2-2-2-2-2-2-2-|
 
                       If you love me too, can I call
e|--3-3-3-3-3-3-3-3--2-2-2-2-2-2-2-2--2-2-2-2-2-2-2-2--5-5-5-5-5-5-5-5--|
B|--3-3-3-3-3-3-3-3--2-2-2-2-2-2-2-2--3-3-3-3-3-3-3-3--7-7-7-7-7-7-7-7--|
G|--4-4-4-4-4-4-4-4--3-3-3-3-3-3-3-3--4-4-4-4-4-4-4-4--5-5-5-5-5-5-5-5--|
D|--5-5-5-5-5-5-5-5--2-2-2-2-2-2-2-2--4-4-4-4-4-4-4-4--7-7-7-7-7-7-7-7--|
A|--5-5-5-5-5-5-5-5--4-4-4-4-4-4-4-4--2-2-2-2-2-2-2-2--5-5-5-5-5-5-5-5--|
E|--3-3-3-3-3-3-3-3--2-2-2-2-2-2-2-2--x-x-x-x-x-x-x-x--x-x-x-x-x-x-x-x--|

                              you, my only one
e|--3-3-3-3-3-3-3-3--3-3-3-3-3-3-3-3--5-5-5-5-5-5-5-5--5-5-5-5-5-5-5-5--|
B|--3-3-3-3-3-3-3-3--3-3-3-3-3-3-3-3--7-7-7-7-7-7-7-7--7-7-7-7-7-7-7-7--|
G|--4-4-4-4-4-4-4-4--3-3-3-3-3-3-3-3--7-7-7-7-7-7-7-7--7-7-7-7-7-7-7-7--|
D|--5-5-5-5-5-5-5-5--5-5-5-5-5-5-5-5--7-7-7-7-7-7-7-7--7-7-7-7-7-7-7-7--|
A|--5-5-5-5-5-5-5-5--5-5-5-5-5-5-5-5--5-5-5-5-5-5-5-5--5-5-5-5-5-5-5-5--|
E|--3-3-3-3-3-3-3-3--3-3-3-3-3-3-3-3--x-x-x-x-x-x-x-x--x-x-x-x-x-x-x-x--|

                       If you say no, I won't let
e|--3-3-3-3-3-3-3-3--2-2-2-2-2-2-2-2--2-2-2-2-2-2-2-2--5-5-5-5-5-5-5-5--|
B|--3-3-3-3-3-3-3-3--2-2-2-2-2-2-2-2--3-3-3-3-3-3-3-3--7-7-7-7-7-7-7-7--|
G|--4-4-4-4-4-4-4-4--3-3-3-3-3-3-3-3--4-4-4-4-4-4-4-4--5-5-5-5-5-5-5-5--|
D|--5-5-5-5-5-5-5-5--2-2-2-2-2-2-2-2--4-4-4-4-4-4-4-4--7-7-7-7-7-7-7-7--|
A|--5-5-5-5-5-5-5-5--4-4-4-4-4-4-4-4--2-2-2-2-2-2-2-2--5-5-5-5-5-5-5-5--|
E|--3-3-3-3-3-3-3-3--2-2-2-2-2-2-2-2--x-x-x-x-x-x-x-x--x-x-x-x-x-x-x-x--|

                           go, My only one.
e|--3-3-3-3-3-3-3-3--3-3-3-3-3-3-3-3--5-5-5-5-5-5-5-5------2-2-2-2-2-2--|
B|--3-3-3-3-3-3-3-3--3-3-3-3-3-3-3-3--7-7-7-7-7-7-7-7------2-2-2-2-2-2--|
G|--4-4-4-4-4-4-4-4--3-3-3-3-3-3-3-3--7-7-7-7-7-7-7-7------3-3-3-3-3-3--|
D|--5-5-5-5-5-5-5-5--5-5-5-5-5-5-5-5--7-7-7-7-7-7-7-7------4-4-4-4-4-4--|
A|--5-5-5-5-5-5-5-5--5-5-5-5-5-5-5-5--5-5-5-5-5-5-5-5------4-4-4-4-4-4--|
E|--3-3-3-3-3-3-3-3--3-3-3-3-3-3-3-3--x-x-x-x-x-x-x-x------2-2-2-2-2-2--|

e|-------------------------------------------------------------------------|
B|-------------------------------------------------------------------------|
G|-----7---7------11--------7---7------9-------6---6------11--------7---7--|
D|-7/9---9--------------7/9---9--------------7---7--------------7/9---9----|
A|-----------9/12----12-----------9/10---10----------7/12----12------------|
E|-------------------------------------------------------------------------|

e|--------------|
B|--------------|
G|-------11-----|   x2
D|--------------|
A|--9/12----12--|
E|--------------|

                 If you believe we were meant to be,
e|-7-7-7-7-7-7-7-7-5-5-5-5-5-5-5-5-10-10-10-10-10-10-10-10-7-7-7-7-7-7-7-7-|
B|-8-8-8-8-8-8-8-8-5-5-5-5-5-5-5-5-10-10-10-10-10-10-10-10-7-7-7-7-7-7-7-7-|
G|-9-9-9-9-9-9-9-9-6-6-6-6-6-6-6-6-11-11-11-11-11-11-11-11-7-7-7-7-7-7-7-7-|
D|-9-9-9-9-9-9-9-9-7-7-7-7-7-7-7-7-12-12-12-12-12-12-12-12-9-9-9-9-9-9-9-9-|
A|-7-7-7-7-7-7-7-7-7-7-7-7-7-7-7-7-12-12-12-12-12-12-12-12-9-9-9-9-9-9-9-9-|
E|-x-x-x-x-x-x-x-x-5-5-5-5-5-5-5-5-10-10-10-10-10-10-10-10-7-7-7-7-7-7-7-7-|

                      Why'd you leave me alone?
e|-7-7-7-7-7-7-7-7-5-5-5-5-5-5-5-5-10-10-10-10-10-10-10-10-7-7-7-7-7-7-7-7-|
B|-8-8-8-8-8-8-8-8-5-5-5-5-5-5-5-5-10-10-10-10-10-10-10-10-7-7-7-7-7-7-7-7-|
G|-9-9-9-9-9-9-9-9-6-6-6-6-6-6-6-6-11-11-11-11-11-11-11-11-7-7-7-7-7-7-7-7-|
D|-9-9-9-9-9-9-9-9-7-7-7-7-7-7-7-7-12-12-12-12-12-12-12-12-9-9-9-9-9-9-9-9-|
A|-7-7-7-7-7-7-7-7-7-7-7-7-7-7-7-7-12-12-12-12-12-12-12-12-9-9-9-9-9-9-9-9-|
E|-x-x-x-x-x-x-x-x-5-5-5-5-5-5-5-5-10-10-10-10-10-10-10-10-7-7-7-7-7-7-7-7-|

                 If you believe we were meant to be,
e|-7-7-7-7-7-7-7-7-5-5-5-5-5-5-5-5-10-10-10-10-10-10-10-10-7-7-7-7-7-7-7-7-|
B|-8-8-8-8-8-8-8-8-5-5-5-5-5-5-5-5-10-10-10-10-10-10-10-10-7-7-7-7-7-7-7-7-|
G|-9-9-9-9-9-9-9-9-6-6-6-6-6-6-6-6-11-11-11-11-11-11-11-11-7-7-7-7-7-7-7-7-|
D|-9-9-9-9-9-9-9-9-7-7-7-7-7-7-7-7-12-12-12-12-12-12-12-12-9-9-9-9-9-9-9-9-|
A|-7-7-7-7-7-7-7-7-7-7-7-7-7-7-7-7-12-12-12-12-12-12-12-12-9-9-9-9-9-9-9-9-|
E|-x-x-x-x-x-x-x-x-5-5-5-5-5-5-5-5-10-10-10-10-10-10-10-10-7-7-7-7-7-7-7-7-|

                      Why'd you leave me alone?
e|-7-7-7-7-7-7-7-7-5-5-5-5-5-5-5-5-10-10-10-10-10-10-10-10-2-2-2-2-2-2-2-2-|
B|-8-8-8-8-8-8-8-8-5-5-5-5-5-5-5-5-10-10-10-10-10-10-10-10-2-2-2-2-2-2-2-2-|
G|-9-9-9-9-9-9-9-9-6-6-6-6-6-6-6-6-11-11-11-11-11-11-11-11-3-3-3-3-3-3-3-3-|
D|-9-9-9-9-9-9-9-9-7-7-7-7-7-7-7-7-12-12-12-12-12-12-12-12-4-4-4-4-4-4-4-4-|
A|-7-7-7-7-7-7-7-7-7-7-7-7-7-7-7-7-12-12-12-12-12-12-12-12-4-4-4-4-4-4-4-4-|
E|-x-x-x-x-x-x-x-x-5-5-5-5-5-5-5-5-10-10-10-10-10-10-10-10-2-2-2-2-2-2-2-2-|

e|-------------------------------------------------------------------------|
B|-------------------------------------------------------------------------|
G|-----7---7------11--------7---7------9-------6---6------11--------7---7--|
D|-7/9---9--------------7/9---9--------------7---7--------------7/9---9----|
A|-----------9/12----12-----------9/10---10----------7/12----12------------|
E|-------------------------------------------------------------------------|

e|--------------|
B|--------------|
G|-------11-----| 
D|--------------|
A|--9/12----12--|
E|--------------|

e|---------------------------------------------------------------7---------|
B|---------------------------------------------------------------7---------|
G|-----7---7------11--------7---7------9-------6---6------11-----7---------|
D|-7/9---9--------------7/9---9--------------7---7---------------9---------|
A|-----------9/12----12-----------9/10---10----------7/12--------9---------|
E|---------------------------------------------------------------7---------|

                                 END

| /  slide up
| \  slide down
| h  hammer-on
| p  pull-off
| ~  vibrato
| +  harmonic
| x  Mute note
============================================================================


            
            
Suggest correction
Creating personal tab
Creating personal tab
You can edit any tab online and save it as your Personal.

You can edit, replace or remove any tab part or add personal notes – all changes will be seen only by you.

Personal tabs can be accessed anytime from any device, even offline.
Learn more »
Give kudos to tab author, rate the tab!
1 2 3 4 5
comments
print report bad tab
guest
You may want to rate the tab now too:
select rating
Wanna post a correction for this tab? Suggest correction