Oops, an error
Loading. Please wait.

Our Time Now tab

version 1
version 1

Whole song

Interactive

26,018 views 21 this week
11 commentsread comments
1 2 3 4 5
x 13
add to favorites
×
Save as Personal and add changes to this tab that will be seen only by you. Learn more ›
×
You can save this tab as Personal to edit and correct it or add notes. All changes will be seen only by you. Learn more »
launch autoscroll
font size
0
reset
how to read this tab
guitar tuner
edit
Autoscroll
slow
fast
+/-
esc
set tempo
stop
Author
Difficulty
x - Palm Mute
~ - Vibrato

Intro:
|--------------------------------------------------------------------------|
|--------------------------------------------------------------------------|
|--5-5-5-5-5-5-5-5---------------------------------------------------------|
|--5-5-5-5-5-5-5-5---3-3-3-3-3-3-3-3---7-7-7-7---2-2-2-2---3-3-3-3--5-5-5-5|
|--3-3-3-3-3-3-3-3---3-3-3-3-3-3-3-3---7-7-7-7---2-2-2-2---3-3-3-3--5-5-5-5|
|--------------------1-1-1-1-1-1-1-1---5-5-5-5---0-0-0-0---1-1-1-1--3-3-3-3|

Verse:
|--------------------------------------------------------------------------|
|--------------------------------------------------------------------------|
|--5-5-5-5-5-5-5-5---------------------------------------------------------|
|--5-5-5-5-5-5-5-5---3-3-3-3-3-3-3-3---7-7-7-7---2-2-2-2---3-3-3-3--5-5-5-5|
|--3-3-3-3-3-3-3-3---3-3-3-3-3-3-3-3---7-7-7-7---2-2-2-2---3-3-3-3--5-5-5-5|
|--------------------1-1-1-1-1-1-1-1---5-5-5-5---0-0-0-0---1-1-1-1--3-3-3-3|
   x x x x x x x x   x x x x x x x x   x x x x   x x x x   x x x x  x x x x

|--------------------------------------------------------------------------|
|--------------------------------------------------------------------------|
|--5-5-5-5-5-5-5-5---------------------------------------------------------|
|--5-5-5-5-5-5-5-5---3-3-3-3-3-3-3-3---7-7-7-7---2-2-2-2---3-3-3-3--5-5-5-5|
|--3-3-3-3-3-3-3-3---3-3-3-3-3-3-3-3---7-7-7-7---2-2-2-2---3-3-3-3--5-5-5-5|
|--------------------1-1-1-1-1-1-1-1---5-5-5-5---0-0-0-0---1-1-1-1--3-3-3-3|
   x x x x x x x x   x x x x x x x x   x x x x   x x x x   x x x x  x x x x

Chorus:
|--------------------------------------------------------------------------|
|--------------------------------------------------------------------------|
|--5-5-5-5-5-5-5-5---------------------------------------------------------|
|--5-5-5-5-5-5-5-5---3-3-3-3-3-3-3-3---7-7-7-7---2-2-2-2---3-3-3-3--5-5-5-5|
|--3-3-3-3-3-3-3-3---3-3-3-3-3-3-3-3---7-7-7-7---2-2-2-2---3-3-3-3--5-5-5-5|
|--------------------1-1-1-1-1-1-1-1---5-5-5-5---0-0-0-0---1-1-1-1--3-3-3-3|

|--------------------------------------------------------------------------|
|--------------------------------------------------------------------------|
|--5-5-5-5-5-5-5-5---------------------------------------------------------|
|--5-5-5-5-5-5-5-5---3-3-3-3-3-3-3-3---7-7-7-7---2-2-2-2---3-3-3-3--5-5-5-5|
|--3-3-3-3-3-3-3-3---3-3-3-3-3-3-3-3---7-7-7-7---2-2-2-2---3-3-3-3--5-5-5-5|
|--------------------1-1-1-1-1-1-1-1---5-5-5-5---0-0-0-0---1-1-1-1--3-3-3-3|

Then that funky guitar part. Then it goes right into...

Verse:
|--------------------------------------------------------------------------|
|--------------------------------------------------------------------------|
|--5-5-5-5-5-5-5-5---------------------------------------------------------|
|--5-5-5-5-5-5-5-5---3-3-3-3-3-3-3-3---7-7-7-7---2-2-2-2---3-3-3-3--5-5-5-5|
|--3-3-3-3-3-3-3-3---3-3-3-3-3-3-3-3---7-7-7-7---2-2-2-2---3-3-3-3--5-5-5-5|
|--------------------1-1-1-1-1-1-1-1---5-5-5-5---0-0-0-0---1-1-1-1--3-3-3-3|
   x x x x x x x x   x x x x x x x x   x x x x   x x x x   x x x x  x x x x

|--------------------------------------------------------------------------|
|--------------------------------------------------------------------------|
|--5-5-5-5-5-5-5-5---------------------------------------------------------|
|--5-5-5-5-5-5-5-5---3-3-3-3-3-3-3-3---7-7-7-7---2-2-2-2---3-3-3-3--5-5-5-5|
|--3-3-3-3-3-3-3-3---3-3-3-3-3-3-3-3---7-7-7-7---2-2-2-2---3-3-3-3--5-5-5-5|
|--------------------1-1-1-1-1-1-1-1---5-5-5-5---0-0-0-0---1-1-1-1--3-3-3-3|
   x x x x x x x x   x x x x x x x x   x x x x   x x x x   x x x x  x x x x

Chorus:
|--------------------------------------------------------------------------|
|--------------------------------------------------------------------------|
|--5-5-5-5-5-5-5-5---------------------------------------------------------|
|--5-5-5-5-5-5-5-5---3-3-3-3-3-3-3-3---7-7-7-7---2-2-2-2---3-3-3-3--5-5-5-5|
|--3-3-3-3-3-3-3-3---3-3-3-3-3-3-3-3---7-7-7-7---2-2-2-2---3-3-3-3--5-5-5-5|
|--------------------1-1-1-1-1-1-1-1---5-5-5-5---0-0-0-0---1-1-1-1--3-3-3-3|

|--------------------------------------------------------------------------|
|--------------------------------------------------------------------------|
|--5-5-5-5-5-5-5-5---------------------------------------------------------|
|--5-5-5-5-5-5-5-5---3-3-3-3-3-3-3-3---7-7-7-7---2-2-2-2---3-3-3-3--5-5-5-5|
|--3-3-3-3-3-3-3-3---3-3-3-3-3-3-3-3---7-7-7-7---2-2-2-2---3-3-3-3--5-5-5-5|
|--------------------1-1-1-1-1-1-1-1---5-5-5-5---0-0-0-0---1-1-1-1--3-3-3-3|

Bridge:
|--------------------------------------------------------------------------|
|--------------------------------------------------------------------------|
|--5-5-5-5-5-5-5-5---9-9-9-9-9-9-9-9---5-5-5-5-5-5-5-5---9-9-9-9-9-9-9-9---|
|--5-5-5-5-5-5-5-5---9-9-9-9-9-9-9-9---5-5-5-5-5-5-5-5---9-9-9-9-9-9-9-9---|
|--3-3-3-3-3-3-3-3---7-7-7-7-7-7-7-7---3-3-3-3-3-3-3-3---7-7-7-7-7-7-7-7---|
|--------------------------------------------------------------------------|

Bridge:
|------|  |------|
|------|  |------|
|--5~--|  |------|  Then it goes right into the Chorus.
|--5~--|  |--3~--|
|--3~--|  |--3~--|
|------|  |--1~--|

Chorus:
|---------------------------------------|
|---------------------------------------|
|---------------------------------------|
|---7-7-7-7---2-2-2-2---3-3-3-3--5-5-5-5|
|---7-7-7-7---2-2-2-2---3-3-3-3--5-5-5-5|
|---5-5-5-5---0-0-0-0---1-1-1-1--3-3-3-3|

|--------------------------------------------------------------------------|
|--------------------------------------------------------------------------|
|--5-5-5-5-5-5-5-5---------------------------------------------------------|
|--5-5-5-5-5-5-5-5---3-3-3-3-3-3-3-3---7-7-7-7---2-2-2-2---3-3-3-3--5-5-5-5|
|--3-3-3-3-3-3-3-3---3-3-3-3-3-3-3-3---7-7-7-7---2-2-2-2---3-3-3-3--5-5-5-5|
|--------------------1-1-1-1-1-1-1-1---5-5-5-5---0-0-0-0---1-1-1-1--3-3-3-3|

Bridge 2:
|--------------------------------------------------------------------------|
|--------------------------------------------------------------------------|
|--5-5-5-5-5-5-5-5---------------------------------------------------------|
|--5-5-5-5-5-5-5-5---3-3-3-3-3-3-3-3---7-7-7-7-7-7-7-7---5-5-5-5-5-5-5-5---|
|--3-3-3-3-3-3-3-3---3-3-3-3-3-3-3-3---5-5-5-5-5-5-5-5---5-5-5-5-5-5-5-5---|
|--------------------1-1-1-1-1-1-1-1---5-5-5-5-5-5-5-5---3-3-3-3-3-3-3-3---|

Outro:
|-----------------|
|-----------------|
|-----------------|
|--7~---2~---3~---|
|--7~---2~---3~---|
|--5~---0~---1~---|

This is my first tab so I hope it's right. Any corrections or complaints send to, 
, Thanks! =)

            
            
Suggest correction
Creating personal tab
Creating personal tab
You can edit any tab online and save it as your Personal.

You can edit, replace or remove any tab part or add personal notes – all changes will be seen only by you.

Personal tabs can be accessed anytime from any device, even offline.
Learn more »
comments
print report bad tab
11 comments total. Showing first comments.
-2 reply
~coloradorockr~ 10 Jan 02, 2008 08:57 AM

sounds iffy in some places....especially the Em in the verse

+1 reply
xpatrickstumpx 10 Jan 25, 2008 02:57 PM

not perfect but pretty good for ur first tab

good work =]

+5 reply
llamalord1 10 Mar 03, 2008 11:46 AM

great tab sounded perfect to me i looker this up after icarly lol

guest
You may want to rate the tab now too:
select rating
Wanna post a correction for this tab? Suggest correction