Oops, an error
Loading. Please wait.

Our Time Now tab

version 3
version 3

Whole song

Interactive

49 views 1 this week
no commentswrite comment
1 2 3 4 5
3 more votes to show rating
add to favorites
×
Save as Personal and add changes to this tab that will be seen only by you. Learn more ›
×
You can save this tab as Personal to edit and correct it or add notes. All changes will be seen only by you. Learn more »
launch autoscroll
font size
0
reset
how to read this tab
guitar tuner
edit
Autoscroll
slow
fast
+/-
esc
set tempo
stop
This is my firs tab, i learned this song by ear and then i looked at the guitar tabs on
here and saw that they either have some slight mistakes or miss some little parts out so
i thought i would create my own, in the tuning that I play, as the others have it in
standard but i play it in Drop D as i find it easier, and i think this tab one is more accurate
however it doesn't really matter whether it's Standard or Drop D

both guitars: Drop D (D-A-D-G-B-e)
                     (standard tuning with the top string tuned one whole step down (E to D)

[Intro] (Both Guitars)

(00:00)
e|-----------------------------|
B|-----------------------------|
G|---------------------x-x-x-x-|
D|---------------------x-x-x-x-|
A|---------------------x-x-x-x-|
D|---------------------x-x-x-x-|

(00:03)
e|-----------------------------|-----------------------------|
B|-----------------------------|-----------------------------|
G|-5--5--5-5-5-5--5-5--5-5-5-5-|-----------------------------|
D|-5--5--5-5-5-5--5-5--5-5-5-5-|-3--3--3-3-3-3--3-3--3-3-3-3-|
A|-3--3--3-3-3-3--3-3--3-3-3-3-|-3--3--3-3-3-3--3-3--3-3-3-3-|
D|-----------------------------|-3--3--3-3-3-3--3-3--3-3-3-3-|

e|-----------------------------|-----------------------------|
B|-----------------------------|-----------------------------|
G|-----------------------------|-----------------------------|
D|-7--7--7-7-7-2--2-2--2-2-2-2-|-3--3--3-3-3-5--5-5--5-5-5-5-|
A|-7--7--7-7-7-2--2-2--2-2-2-2-|-3--3--3-3-3-5--5-5--5-5-5-5-|
D|-7--7--7-7-7-2--2-2--2-2-2-2-|-3--3--3-3-3-5--5-5--5-5-5-5-|


[Verse] (guitar 1)

(00:12) (this bit is really quiet in the song, played under the drums, bass guitar and vocals)
e|------------------------|-------------------------|
B|------------------------|-------------------------|
G|------------------------|-------------------------|
D|-7--7-7--7-7--7-7--7--5-|-7--7-7--7-7--7-7--9--10-|
A|------------------------|-------------------------|
D|------------------------|-------------------------|
PM .  . .  . .  . .  .  .   .  . .  . .  . .  .  .

e|--------------------------|---------------------------------|
B|--------------------------|---------------------------------|
G|--------------------------|---------------------------------|
D|-7--7-7--7-9--9-9--9--7-9-|-10--10-10--10-12--12-12--15--14-|
A|--------------------------|---------------------------------|
D|--------------------------|---------------------------------|
PM .  . .  . .  . .  .  . .    .   .  .   .  .   .  .   .   .

e|------------------------|-------------------------|
B|------------------------|-------------------------|
G|------------------------|-------------------------|
D|-7--7-7--7-7--7-7--7--5-|-7--7-7--7-7--7-7--9--10-|
A|------------------------|-------------------------|
D|------------------------|-------------------------|
PM .  . .  . .  . .  .  .   .  . .  . .  . .  .  .

e|--------------------------|---------------------------------|
B|--------------------------|---------------------------------|
G|--------------------------|---------------------------------|
D|-7--7-7--7-9--9-9--9--7-9-|-10--10-10--10-12--12-12--12--12-|
A|--------------------------|---------------------------------|
D|--------------------------|---------------------------------|
PM .  . .  . .  . .  .  . .    .   .  .   .  .   .  .   .   .


[Chorus] (Both Guitars)

(00:31)
e|-----------------------------|
B|-----------------------------|
G|---------------------x-x-x-x-|
D|---------------------x-x-x-x-|
A|---------------------x-x-x-x-|
D|---------------------x-x-x-x-|

(00:33)
e|-----------------------------|-----------------------------|
B|-----------------------------|-----------------------------|
G|-5--5--5-5-5-5--5-5--5-5-5-5-|-----------------------------|
D|-5--5--5-5-5-5--5-5--5-5-5-5-|-3--3--3-3-3-3--3-3--3-3-3-3-|
A|-3--3--3-3-3-3--3-3--3-3-3-3-|-3--3--3-3-3-3--3-3--3-3-3-3-|
D|-----------------------------|-3--3--3-3-3-3--3-3--3-3-3-3-|

e|-----------------------------|-----------------------------|
B|-----------------------------|-----------------------------|
G|-----------------------------|-----------------------------|
D|-7--7--7-7-7-2--2-2--2-2-2-2-|-3--3--3-3-3-5--5-5--5-5-5-5-|
A|-7--7--7-7-7-2--2-2--2-2-2-2-|-3--3--3-3-3-5--5-5--5-5-5-5-|
D|-7--7--7-7-7-2--2-2--2-2-2-2-|-3--3--3-3-3-5--5-5--5-5-5-5-|

e|-----------------------------|-----------------------------|
B|-----------------------------|-----------------------------|
G|-5--5--5-5-5-5--5-5--5-5-5-5-|-----------------------------|
D|-5--5--5-5-5-5--5-5--5-5-5-5-|-3--3--3-3-3-3--3-3--3-3-3-3-|
A|-3--3--3-3-3-3--3-3--3-3-3-3-|-3--3--3-3-3-3--3-3--3-3-3-3-|
D|-----------------------------|-3--3--3-3-3-3--3-3--3-3-3-3-|

e|-----------------------------|-----------------------------|
B|-----------------------------|-----------------------------|
G|-----------------------------|-----------------------------|
D|-7--7--7-7-7-2--2-2--2-2-2-2-|-3--3--3-3-3-5--5-5--5-5-5-5-|
A|-7--7--7-7-7-2--2-2--2-2-2-2-|-3--3--3-3-3-5--5-5--5-5-5-5-|
D|-7--7--7-7-7-2--2-2--2-2-2-2-|-3--3--3-3-3-5--5-5--5-5-5-5-|

[Post-Chorus] (Both Guitars)

(00:52)
e|--------------------------|--------------------------|
B|--------------------------|--------------------------|
G|--------------------------|--------------------------|
D|-7--x-7--x-7--x-x-7--5--5-|-7--x-5--x-7\-------------|
A|-x--x-x--x-x--x-x-x--x--x-|-x--x-x--x-x--------------|
D|-7--x-7--x-7--x-x-7--5--5-|-7--x-5--x-7\-------------|

[verse] (Guitar 1)

(00:56)
e|---5---5---5-5---5---5---5---5-5---5-|---3---3---3-3---3---5---7---7-7---7-|
B|---5---5---5-5---5---6---6---6-6---6-|---3---5---5-5---5---5---8---8-8---8-|
G|-------------------------------------|-------------------------------------|
D|-------------------------------------|-------------------------------------|
A|-------------------------------------|-------------------------------------|
D|-------------------------------------|-------------------------------------|

e|---5---5---5-5---5---5---5---5-5---5-|---3---3---3-3---3---5---7---7-7---7-|
B|---5---5---5-5---5---6---6---6-6---6-|---3---5---5-5---5---5---8---8-8---8-|
G|-------------------------------------|-------------------------------------|
D|-------------------------------------|-------------------------------------|
A|-------------------------------------|-------------------------------------|
D|-------------------------------------|-------------------------------------|


[Chorus] (Both Guitars)

(01:15)
e|-----------------------------|
B|-----------------------------|
G|---------------------x-x-x-x-|
D|---------------------x-x-x-x-|
A|---------------------x-x-x-x-|
D|---------------------x-x-x-x-|

(01:17)
e|-----------------------------|-----------------------------|
B|-----------------------------|-----------------------------|
G|-5--5--5-5-5-5--5-5--5-5-5-5-|-----------------------------|
D|-5--5--5-5-5-5--5-5--5-5-5-5-|-3--3--3-3-3-3--3-3--3-3-3-3-|
A|-3--3--3-3-3-3--3-3--3-3-3-3-|-3--3--3-3-3-3--3-3--3-3-3-3-|
D|-----------------------------|-3--3--3-3-3-3--3-3--3-3-3-3-|

e|-----------------------------|-----------------------------|
B|-----------------------------|-----------------------------|
G|-----------------------------|-----------------------------|
D|-7--7--7-7-7-2--2-2--2-2-2-2-|-3--3--3-3-3-5--5-5--5-5-5-5-|
A|-7--7--7-7-7-2--2-2--2-2-2-2-|-3--3--3-3-3-5--5-5--5-5-5-5-|
D|-7--7--7-7-7-2--2-2--2-2-2-2-|-3--3--3-3-3-5--5-5--5-5-5-5-|

e|-----------------------------|-----------------------------|
B|-----------------------------|-----------------------------|
G|-5--5--5-5-5-5--5-5--5-5-5-5-|-----------------------------|
D|-5--5--5-5-5-5--5-5--5-5-5-5-|-3--3--3-3-3-3--3-3--3-3-3-3-|
A|-3--3--3-3-3-3--3-3--3-3-3-3-|-3--3--3-3-3-3--3-3--3-3-3-3-|
D|-----------------------------|-3--3--3-3-3-3--3-3--3-3-3-3-|

e|-----------------------------|-----------------------------|
B|-----------------------------|-----------------------------|
G|-----------------------------|-----------------------------|
D|-7--7--7-7-7-2--2-2--2-2-2-2-|-3--3--3-3-3-5--5-5--5-5-5-5-|
A|-7--7--7-7-7-2--2-2--2-2-2-2-|-3--3--3-3-3-5--5-5--5-5-5-5-|
D|-7--7--7-7-7-2--2-2--2-2-2-2-|-3--3--3-3-3-5--5-5--5-5-5-5-|

[Bridge]

(01:36)
(Guitar 1)
e|---------------------------|---------------------------|
B|---------------------------|---------------------------|
G|---------------------------|---------------------------|
D|-3--3-3--3-3--3-3-3--3-3-3-|-5--5-5--5-5--5-5-5--5-5-5-|
A|-3--3-3--3-3--3-3-3--3-3-3-|-5--5-5--5-5--5-5-5--5-5-5-|
D|-3--3-3--3-3--3-3-3--3-3-3-|-5--5-5--5-5--5-5-5--5-5-5-|

e|---------------------------|---------------------------|
B|---------------------------|---------------------------|
G|---------------------------|---------------------------|
D|-3--3-3--3-3--3-3-3--3-3-3-|-5--5-5--5-5--5-5-5--5-5-5-|
A|-3--3-3--3-3--3-3-3--3-3-3-|-5--5-5--5-5--5-5-5--5-5-5-|
D|-3--3-3--3-3--3-3-3--3-3-3-|-5--5-5--5-5--5-5-5--5-5-5-|

(01:36)
(guitar 2)
e|---------------------------|---------------------------|
B|---------------------------|---------------------------|
G|-5--5-5--5-5--5-5-5--5-5-5-|-7--7-7--7-7--7-7-7--7-7-7-|
D|-x--x-x--x-x--x-x-x--x-x-x-|-x--x-x--x-x--x-x-x--x-x-x-|
A|-3--3-3--3-3--3-3-3--3-3-3-|-5--5-5--5-5--5-5-5--5-5-5-|
D|---------------------------|---------------------------|

e|---------------------------|---------------------------|
B|-6--6-6--6-6--6-6-6--6-6-6-|-8--8-8--8-8--8-8-8--8-8-8-|
G|-5--5-5--5-5--5-5-5--5-5-5-|-7--7-7--7-7--7-7-7--7-7-7-|
D|-x--x-x--x-x--x-x-x--x-x-x-|-x--x-x--x-x--x-x-x--x-x-x-|
A|-3--3-3--3-3--3-3-3--3-3-3-|-5--5-5--5-5--5-5-5--5-5-5-|
D|---------------------------|---------------------------|
[Chorus] (Both Guitars)

(02:04)
e|-----------------------------|-----------------------------|
B|-----------------------------|-----------------------------|
G|-5---------------------------|-----------------------------|
D|-5---------------------------|-3---------------------------|
A|-3---------------------------|-3---------------------------|
D|-----------------------------|-3---------------------------|
(let these ring)

(02:09
e|-----------------------------|-----------------------------|
B|-----------------------------|-----------------------------|
G|-----------------------------|-----------------------------|
D|-7--7--7-7-7-2--2-2--2-2-2-2-|-3--3--3-3-3-5--5-5--5-5-5-5-|
A|-7--7--7-7-7-2--2-2--2-2-2-2-|-3--3--3-3-3-5--5-5--5-5-5-5-|
D|-7--7--7-7-7-2--2-2--2-2-2-2-|-3--3--3-3-3-5--5-5--5-5-5-5-|

e|-----------------------------|-----------------------------|
B|-----------------------------|-----------------------------|
G|-5--5--5-5-5-5--5-5--5-5-5-5-|-----------------------------|
D|-5--5--5-5-5-5--5-5--5-5-5-5-|-3--3--3-3-3-3--3-3--3-3-3-3-|
A|-3--3--3-3-3-3--3-3--3-3-3-3-|-3--3--3-3-3-3--3-3--3-3-3-3-|
D|-----------------------------|-3--3--3-3-3-3--3-3--3-3-3-3-|

e|-----------------------------|-----------------------------|
B|-----------------------------|-----------------------------|
G|-----------------------------|-----------------------------|
D|-7--7--7-7-7-2--2-2--2-2-2-2-|-3--3--3-3-3-5--5-5--5-5-5-5-|
A|-7--7--7-7-7-2--2-2--2-2-2-2-|-3--3--3-3-3-5--5-5--5-5-5-5-|
D|-7--7--7-7-7-2--2-2--2-2-2-2-|-3--3--3-3-3-5--5-5--5-5-5-5-|

[Outro]

(02:23)
(Guitar 1)
e|---------------------------|---------------------------|
B|---------------------------|---------------------------|
G|---------------------------|---------------------------|
D|-7--7-7--7-7--7-7-7--7-7-7-|-3--3-3--3-3--3-3-3--3-3-3-|
A|-7--7-7--7-7--7-7-7--7-7-7-|-3--3-3--3-3--3-3-3--3-3-3-|
D|-7--7-7--7-7--7-7-7--7-7-7-|-3--3-3--3-3--3-3-3--3-3-3-|

e|---------------------------|---------------------------|
B|---------------------------|---------------------------|
G|-5--5-5--5-5--5-5-5--5-5-5-|---------------------------|
D|-5--5-5--5-5--5-5-5--5-5-5-|-5--5-5--5-5--5-5-5--5-5-5-|
A|-5--5-5--5-5--5-5-5--5-5-5-|-5--5-5--5-5--5-5-5--5-5-5-|
D|---------------------------|-5--5-5--5-5--5-5-5--5-5-5-|

(02:23)
(Guitar 2)
e|---------------------------|---------------------------|
B|---------------------------|---------------------------|
G|-9--9-9--9-9--9-9-9--9-9-9-|-5--5-5--5-5--5-5-5--5-5-5-|
D|-x--x-x--x-x--x-x-x--x-x-x-|-x--x-x--x-x--x-x-x--x-x-x-|
A|-7--7-7--7-7--7-7-7--7-7-7-|-3--3-3--3-3--3-3-3--3-3-3-|
D|---------------------------|---------------------------|

e|--------------------------------------|
B|--------------------------------------|
G|--------------------------------------|
D|-12--12-12--12-12--12-12-12--12-12-12-|
A|--x---x--x---x--x---x--x--x---x--x--x-|
D|-10--10-10--10-10--10-10-10--10-10-10-|

e|---------------------------|
B|---------------------------|
G|-7--7-7--7-7--7-7-7--7-7-7-|
D|-x--x-x--x-x--x-x-x--x-x-x-|
A|-5--5-5--5-5--5-5-5--5-5-5-|
D|---------------------------|

(02:34)
(both guitars)
e|-----------------------------|-----------------------------|
B|-----------------------------|-----------------------------|
G|-----------------------------|-----------------------------|
D|-7-------------2-------------|-3---------------------------|
A|-7-------------2-------------|-3---------------------------|
D|-7-------------2-------------|-3---------------------------|
(let these ring)

************************************

| x   Dead note
| \   Slide down

************************************
Suggest correction
Creating personal tab
Creating personal tab
You can edit any tab online and save it as your Personal.

You can edit, replace or remove any tab part or add personal notes – all changes will be seen only by you.

Personal tabs can be accessed anytime from any device, even offline.
Learn more »
Give kudos to tab author, rate the tab!
1 2 3 4 5
comments
print report bad tab
guest
You may want to rate the tab now too:
select rating
Wanna post a correction for this tab? Suggest correction