Oops, an error
Loading. Please wait.

Revenge Tab

version 1
version 1

Whole song

Interactive

2,234 views 6 this week
no commentswrite comment
1 2 3 4 5
excellent!
x 4
add to favorites
launch autoscroll
font size
0
reset
how to read this tab
guitar tuner
Autoscroll
slow
fast
+/-
esc
set tempo
stop
Help us to improve Ultimate-Guitar.com Take our survey!
×
Author
Difficulty
novice
Revenge by The Plain White T's

Tabbed by Tylernol

The whole song is pretty much this riff, its fairly obvious when you play it
and very easy to figure out how many times just by listening to the song

e|--------------------------------------|
B|--------------------------------------|
G|--------------------------------------|
D|-9---9---9-12---12---7---7---12-9---9-|
A|-9---9---9-12---12---7---7---12-9---9-|
E|-7---7---7-10---10---5---5---10-7---7-|

This chord is muted right before the chorus:

e|----|
B|----|
G|----|
D|-12-|
A|-12-|
E|-10-|

Chorus (only the first one):

e|--------------------------------------|    e|----|(Play from "One night.."
B|--------------------------------------|    B|----|  to "..push me away") 
G|--------------------------------------| X4 G|----|
D|-9---9---9-12---12---7---7---12-9---9-|    D|-12-|
A|-9---9---9-12---12---7---7---12-9---9-|    A|-12-|
E|-7---7---7-10---10---5---5---10-7---7-|    E|-10-|

e|--------------------------------------| e|----|(Play until "now i'm 
B|--------------------------------------| B|----|      giving up")  
G|--------------------------------------| G|----|
D|-9---9---9-12---12---7---7---12-9---9-| D|-12-|
A|-9---9---9-12---12---7---7---12-9---9-| A|-12-|
E|-7---7---7-10---10---5---5---10-7---7-| E|-10-|

e|-------------| e|--------------------------------------|    
B|-------------| B|--------------------------------------|    
G|-------------| G|--------------------------------------| X4
D|-12--11-10-9-| D|-9---9---9-12---12---7---7---12-9---9-|   
A|-12--11-10-9-| A|-9---9---9-12---12---7---7---12-9---9-|    
E|-10--9--8--7-| E|-7---7---7-10---10---5---5---10-7---7-|    

For the bridge (part with all the random noise)I just sustain this chord:

e|----|   Half way through the bridge I sustain the 12th fret on the
B|----|   B-string
G|----|
D|-12-|
A|-12-|
E|-10-|

For all those parts inbetween the guitar riffs when it sounds like a plane
is falling or something I like to just do long slow pick slides


So thats it, probably not 100%, but hey sounds good enough, if you got
anything to add or if i can make clearer somehow leave me a comment
Suggest correction
comments
print report bad tab
guest
You may want to rate the tab now too:
select rating
Please do not post tabs as comments. Select "correction" instead!