Oops, an error
Loading. Please wait.

So Damn Clever tab

version 1
version 1

Whole song

5,161 views 3 this week
3 commentsread comments
1 2 3 4 5
x 4
add to favorites
×
Save as Personal and add changes to this tab that will be seen only by you. Learn more ›
×
You can save this tab as Personal to edit and correct it or add notes. All changes will be seen only by you. Learn more »
launch autoscroll
font size
0
reset
how to read this tab
guitar tuner
edit
Autoscroll
slow
fast
+/-
esc
set tempo
stop
Author
Difficulty
So Damn Clever - Plain White Ts

This should be pretty close.  The only thing I'm unsure of is the Bridge for guitar 1.  Enjoy.

Intro Riff
e|------|--------------------------------------------------------------------|
B|------|--------------------------------------------------------------------|
G|------|--------------------------------------------------------------------|
D|7h9p7-|------7----7h9p7-------7----7h9p7-------7-------7h9p7---------------|
A|------|10-7-------------10-7-------------10-7----------------10------------|
E|------|--------------------------------------------------------------------|

Verse
e|---------------------------------------------------------------------------|
B|---------------------------------------------------------------------------|
G|---------------------------------------------------------------------------|
D|9-9-9-9-9-9-9-9-5-5-5-5-5-5-5-5-4-4-4-4-4-4-4-4-7-7-7-7-7-7-7-7------------|
A|9-9-9-9-9-9-9-9-5-5-5-5-5-5-5-5-4-4-4-4-4-4-4-4-7-7-7-7-7-7-7-7------------|
E|7-7-7-7-7-7-7-7-3-3-3-3-3-3-3-3-2-2-2-2-2-2-2-2-5-5-5-5-5-5-5-5------------|
  x x x x x x x x x x x x x x x x x x x x x x x x x x x x x x x x

Pre-Chorus
e|-----------0~--------------------------------------------------------------|
B|-----------0~--------------------------------------------------------------|
G|-----------0~--------------------------------------------------------------|
D|2~---------------------5-5-5-5-5-5-----------------------------------------|
A|2~---------------------5-5-5-5-5-5-----------------------------------------|
E|0~---------------------3-3-3-3-3-3-----------------------------------------|
                         x x x x x 

Chorus Pt. 1
e|-----------------------------------------------------------------0~--------|
B|-----------------------------------------------------------------0~--------|
G|-----------------------------------------------------------------0~--------|
D|9---9---7--7-7-7-7-5---5----4--4-4-4-9---9---7--7-7-7-7----3~--------------|
A|9---9---7--7-7-7-7-5---5----4--4-4-4-9---9---7--7-7-7-7----3~--------------|
E|7---7---5--5-5-5-5-3---3----2--2-2-2-7---7---5--5-5-5-5----0~--------------|

Chorus Pt. 2
e|---------------------------------------------------------------------------|
B|---------------------------------------------------------------------------|
G|-------------------5---5---------------------------------------------------|
D|9---9---7--7-7-7-7-5---5---2-2-2-2-5-5-5-5-2-2-2-2-2-2-2-7-----------------|
A|9---9---7--7-7-7-7-7---7---2-2-2-2-5-5-5-5-2-2-2-2-2-2-2-7-----------------|
E|7---7---5--5-5-5-5---------0-0-0-0-3-3-3-3-0-0-0-0-0-0-0-5-----------------|

Bridge (Guitar II)
e|---------------------0~-------------------------0~-------------------------|
B|---------------------0~-------------------------0~-------------------------|
G|---------------------0~-------------------------0~-------------------------|
D|5-5-5-5-7-7-7-7-2~---------5-5-5-5-7-7-7-7-2~------------------------------|
A|5-5-5-5-7-7-7-7-2~---------5-5-5-5-7-7-7-7-2~------------------------------|
E|3-3-3-3-5-5-5-5-0~---------3-3-3-3-5-5-5-5-0~------------------------------|

Bridge (Guitar I)
e|---------------------------------------------------------------------------|
B|---------------------------------------------------------------------------|
G|---------------------------------------------------------------------------|
D|7-4-0-5--4-25---------------7-4-0-5--4-22----------------------------------|
A|---------------------------------------------------------------------------|
E|---------------------------------------------------------------------------|

Bridge Pt. 2
e|---------------------------------------------------------------------------|
B|---------------------------------------------------------------------------|
G|---------------------------------------------------------------------------|
D|5-5-5-5-7-7-7-7-8-8-8-8-9-9-9-9-9-9-7-7-7-7-7-7-7-7------------------------|
A|5-5-5-5-7-7-7-7-8-8-8-8-9-9-9-9-9-9-7-7-7-7-7-7-7-7------------------------|
E|3-3-3-3-5-5-5-5-6-6-6-6-7-7-7-7-7-7-5-5-5-5-5-5-5-5------------------------|

Outro (Guitar I)
e|---------------------------------------------------------------------------|
B|---------------------------------------------------------------------------|
G|---------------------------------------------------------------------------|
D|7h9p7--------7----7h9p7------------7h9p7-------7-------7h9p7---------------|
A|-------10-7-------------10---------------10-7----------------10------------|
E|---------------------------------------------------------------------------|

e|---------------------------------------------------------------------------|
B|---------------------------------------------------------------------------|
G|---------------------------------------------------------------------------|
D|7h9p7--------7----7h9p7-----9-7~-------------------------------------------|
A|-------10-7-------------10-------------------------------------------------|
E|---------------------------------------------------------------------------|

Outro (Guitar II)
e|----------------------------0~---------------------------------0~----------|
B|----------------------------0~---------------------------------0~----------|
G|----------------------------0~---------------------------------0~----------|
D|9---9---7--7-7-7-7-----3~----------9---9---7--7-7-7-7-----3~---------------|
A|9---9---7--7-7-7-7-----3~----------9---9---7--7-7-7-7-----3~---------------|
E|7---7---5--5-5-5-5-----0~----------7---7---5--5-5-5-5-----0~---------------|

e|---------------------------------------------------------------------------|
B|---------------------------------------------------------------------------|
G|---------------------------------------------------------------------------|
D|9---9---7--7-7-7-7-5---5---4--4-4-4-2-2-2-2-5-5-5-5-2-2-2-2-2-2-2-7--------|
A|9---9---7--7-7-7-7-5---5---4--4-4-4-2-2-2-2-5-5-5-5-2-2-2-2-2-2-2-7--------|
E|7---7---5--5-5-5-5-3---3---2--2-2-2-0-0-0-0-3-3-3-3-0-0-0-0-0-0-0-5--------|

Here's the order to play these parts.  It can be done with one guitar or two.
Second guitar part is noted in parentheses unless there are parts above labeled for the second guitar.

Intro Riff (Chorus Pt. 1)
Verse x2
Pre-Chorus (This is probably two guitars..)
Chorus Pt. 1
Chorus Pt. 2
Intro Riff (Chhorus Pt. 1)
Verse x2
Pre-Chorus x2 (Listen for slight variation)
Chorus Pt. 1
Chorus Pt. 2
Bridge
Bridge Pt. 2
Chorus Pt. 1
Chorus Pt. 2
Outro
Suggest correction
Creating personal tab
Creating personal tab
You can edit any tab online and save it as your Personal.

You can edit, replace or remove any tab part or add personal notes – all changes will be seen only by you.

Personal tabs can be accessed anytime from any device, even offline.
Learn more »
comments
print report bad tab
3 comments total.
+2 reply
Paradox711 10 Aug 22, 2007 02:14 AM

hmmm, not to sure about all of it, but its a very good try, good tab, and nice job.

+2 reply
Dream()Theater 10 Oct 10, 2007 12:58 AM

i second paradox.

+2 reply
bloodyguts88 10 Mar 10, 2008 08:27 AM

like paradox711 said, its not perfect , but i think it still a pretty awesome tab, good job

guest
You may want to rate the tab now too:
select rating
Wanna post a correction for this tab? Suggest correction