Oops, an error
Loading. Please wait.

Take Me Away tab

version 1
version 1

Whole song

Interactive

2,581 views 3 this week
1 commentread comment
1 2 3 4 5
x 5
add to favorites
×
Save as Personal and add changes to this tab that will be seen only by you. Learn more ›
×
You can save this tab as Personal to edit and correct it or add notes. All changes will be seen only by you. Learn more »
launch autoscroll
font size
0
reset
how to read this tab
guitar tuner
edit
Autoscroll
slow
fast
+/-
esc
set tempo
stop
Difficulty
verse:

e  --------------------------------|
b  --------------------------------|
g  --7-----------7-----------------|
d  --7--7--5--7--7---x2---5--------|
a  --5--7--5--7--5--------5--------|
e  -----5--3--5-----------7--------|

chorus:

e  --------------------------------|
b  -----------12--10--8--7---------|
g  --7--6--7-----------------------|
d  --7--7--7-----------------------|  x2
a  --5--4--5-----------------------|
e  --------------------------------|

bridge:

e  ----------------------------------|
b  --7--10--8--12--10--7--5--7--8/13-|
g  ----------------------------------|
d  ----------------------------------|
a  ----------------------------------|
e  ----------------------------------|

            
            
Suggest correction
Creating personal tab
Creating personal tab
You can edit any tab online and save it as your Personal.

You can edit, replace or remove any tab part or add personal notes – all changes will be seen only by you.

Personal tabs can be accessed anytime from any device, even offline.
Learn more »
comments
print report bad tab
1 comment total.
0 reply
birdman267 142 Nov 15, 2006 04:06 PM

I didnt realize how extremely simplistic this song is.

Tab seems about right to me.

guest
Wanna post a correction for this tab? Suggest correction