Oops, an error
Loading. Please wait.

Umbrella tab

version 1
version 1

Whole song

Interactive

7,826 views 3 this week
no commentswrite comment
1 2 3 4 5
2 more votes to show rating
add to favorites
×
Save as Personal and add changes to this tab that will be seen only by you. Learn more ›
×
You can save this tab as Personal to edit and correct it or add notes. All changes will be seen only by you. Learn more »
launch autoscroll
font size
0
reset
how to read this tab
guitar tuner
edit
Autoscroll
slow
fast
+/-
esc
set tempo
stop
This is my first tab, so here I go.

Intro:

e----------------|----------------|----------------|----------------|
B----------------|----------------|----------------|----------------|
G----------------|-----5--------5-|----------------|----------------|
D-----3--------3-|---5--------5---|-----2--------2-|-----6--------6-|
A---3--------3---|-3-----33-3-----|---2--------2---|---6--------6---|
E-1-----11-1-----|----------------|-0-----00-0-----|-4-----44-4-----|

(Play intro 2 times with verse 1)
Verse 1:
You have my heart, and we'll never be worlds apart, maybe in magazines, but you'll still
my star,
'cause baby in the dark, you can't see shiny cars, that's when you'll need me there,
you i'll always share,

because,

Pre-Chorus:

When the sun shines we'll shine together, I told you I'd be here forever,
said I'd always be your friend, took an oath gonna stick it out to the end, now that
rainin' more than ever, know that we'll still have eachother, you can stand under my 
can stand under my umbrella,

e----------------|----------------|----------------|----------------|
B----------------|----------------|----------------|----------------|
G----------------|-5--5-55-5-55-5-|----------------|----------------|
D-3--3-33-3-33-3-|-5--5-55-5-55-5-|-2--2-22-2-22-2-|-6--6-66-6-66-6-| X2
A-3--3-33-3-33-3-|-3--3-33-3-33-3-|-2--2-22-2-22-2-|-6--6-66-6-66-6-|
E-1--1-11-1-11-1-|----------------|-0--0-00-0-00-0-|-4--4-44-4-44-4-|

Chorus:

(Play the pre-chorus, but palm-muted)
e----------------|----------------|----------------|----------------|
B----------------|----------------|----------------|----------------|
G----------------|-5--5-55-5-55-5-|----------------|----------------|
D-3--3-33-3-33-3-|-5--5-55-5-55-5-|-2--2-22-2-22-2-|-6--6-66-6-66-6-| X2
A-3--3-33-3-33-3-|-3--3-33-3-33-3-|-2--2-22-2-22-2-|-6--6-66-6-66-6-|
E-1--1-11-1-11-1-|----------------|-0--0-00-0-00-0-|-4--4-44-4-44-4-|

ella, ella, ey, ey, ey, under my umbrella, ella, ella, ey, ey, ey, under my umbrella,
ella, ey, ey, ey,ey, ey-ey...

Verse 2:

(play once without words, then 2 times with the words)
e----------------|----------------|----------------|----------------|
B----------------|----------------|----------------|----------------|
G----------------|-----5--------5-|----------------|----------------|
D-----3--------3-|---5--------5---|-----2--------2-|-----6--------6-|
A---3--------3---|-3-----33-3-----|---2--------2---|---6--------6---|
E-1-----11-1-----|----------------|-0-----00-0-----|-4-----44-4-----|

These fancy things, will never cut inbetween, you're part of my entity, here for
when the war has took its part, when the world has dealt its cards, if the hand is hard,
we'll mend your heart,

because,

When the sun shines we'll shine together, I told you I'd be here forever,
said I'd always be your friend, took an oath gonna stick it out to the end, now that
rainin' more than ever, know that we'll still have each other, you can stand under my 
can stand under my umbrella,

e----------------|----------------|----------------|----------------|
B----------------|----------------|----------------|----------------|
G----------------|-5--5-55-5-55-5-|----------------|----------------|
D-3--3-33-3-33-3-|-5--5-55-5-55-5-|-2--2-22-2-22-2-|-6--6-66-6-66-6-| X2
A-3--3-33-3-33-3-|-3--3-33-3-33-3-|-2--2-22-2-22-2-|-6--6-66-6-66-6-|
E-1--1-11-1-11-1-|----------------|-0--0-00-0-00-0-|-4--4-44-4-44-4-|

(Palm muted)
e----------------|----------------|----------------|----------------|
B----------------|----------------|----------------|----------------|
G----------------|-5--5-55-5-55-5-|----------------|----------------|
D-3--3-33-3-33-3-|-5--5-55-5-55-5-|-2--2-22-2-22-2-|-6--6-66-6-66-6-| X2
A-3--3-33-3-33-3-|-3--3-33-3-33-3-|-2--2-22-2-22-2-|-6--6-66-6-66-6-|
E-1--1-11-1-11-1-|----------------|-0--0-00-0-00-0-|-4--4-44-4-44-4-|

ella, ella, ey, ey, ey, under my umbrella, ella, ella, ey, ey, ey, under my umbrella,
ella, ey, ey, ey,ey, ey-ey...

Bridge:

e----------------|----------------|----------------|----------------|
B----------------|----------------|----------------|----------------|
G-6-6-66-66-6-66-|----------------|-5-5-55-5-55-55-|----------------|
D-6-6-66-66-6-66-|-6-6-66-6-66-66-|-5-5-55-5-55-55-|-3-3-33-3-33-33-| X2
A-4-4-44-44-4-44-|-6-6-66-6-66-66-|-3-3-33-3-33-33-|-3-3-33-3-33-33-|
E----------------|-4-4-44-4-44-44-|----------------|-1-1-11-1-11-11-|

You can run into my arms, it's okay don't be alarmed, come into me, no distance
although, gonna let the rain fall, i'll be all you need and more...ohhh,

Because!

When the sun shines we'll shine together, I told you I'd be here forever,
said I'd always be your friend, took an oath gonna stick it out to the end, now that
rainin' more than ever, know that we'll still have each other, you can stand under my 
can stand under my umbrella,

e----------------|----------------|----------------|----------------|
B----------------|----------------|----------------|----------------|
G----------------|-5--5-55-5-55-5-|----------------|----------------|
D-3--3-33-3-33-3-|-5--5-55-5-55-5-|-2--2-22-2-22-2-|-6--6-66-6-66-6-| X2
A-3--3-33-3-33-3-|-3--3-33-3-33-3-|-2--2-22-2-22-2-|-6--6-66-6-66-6-|
E-1--1-11-1-11-1-|----------------|-0--0-00-0-00-0-|-4--4-44-4-44-4-|

(Palm muted)
e----------------|----------------|----------------|----------------|
B----------------|----------------|----------------|----------------|
G----------------|-5--5-55-5-55-5-|----------------|----------------|
D-3--3-33-3-33-3-|-5--5-55-5-55-5-|-2--2-22-2-22-2-|-6--6-66-6-66-6-| X2
A-3--3-33-3-33-3-|-3--3-33-3-33-3-|-2--2-22-2-22-2-|-6--6-66-6-66-6-|
E-1--1-11-1-11-1-|----------------|-0--0-00-0-00-0-|-4--4-44-4-44-4-|

ella, ella, ey, ey, ey, under my umbrella, ella, ella, ey, ey, ey, under my umbrella,
ella, ey, ey, ey,ey, ey-ey...

e----------------|----------------|----------------|----------------|
B----------------|----------------|----------------|----------------|
G----------------|-----5--------5-|----------------|----------------|
D-----3--------3-|---5--------5---|-----2--------2-|-----6------6---|
A---3--------3---|-3-----33-3-----|---2--------2---|---6-------6----|
E-1-----11-1-----|----------------|-0-----00-0-----|-4-----44-4-----|

End.
enjoy. =)

            
            
Suggest correction
Creating personal tab
Creating personal tab
You can edit any tab online and save it as your Personal.

You can edit, replace or remove any tab part or add personal notes – all changes will be seen only by you.

Personal tabs can be accessed anytime from any device, even offline.
Learn more »
Give kudos to tab author, rate the tab!
1 2 3 4 5
comments
print report bad tab
guest
Wanna post a correction for this tab? Suggest correction