Oops, an error
Loading. Please wait.

Write You A Song tab

version 3
version 3

Whole song

Interactive

3,133 views 1 this week
2 commentsread comments
1 2 3 4 5
x 3
add to favorites
×
Save as Personal and add changes to this tab that will be seen only by you. Learn more ›
×
You can save this tab as Personal to edit and correct it or add notes. All changes will be seen only by you. Learn more »
launch autoscroll
font size
0
reset
how to read this tab
guitar tuner
edit
Autoscroll
slow
fast
+/-
esc
set tempo
stop
Author
Difficulty
Artist: Plain White Ts
Song: Write You A Song

This tab is close to the other ones out there, but i made some changes and this one is 
correct. there's the 2nd guitar in there that i didn't tab out but if you switch to 
and play the 1st guitar's part you'll get the same effect.


Intro
e|--0-0000-0-0000------------------|
b|--0-0000-0-0000------------------|
g|--1-1111-1-1111-4-6-9-8-9-11-----|
d|--2-2222-2-2222-x-x-x-x-x-x------|
a|--2-2222-2-2222-2-4-7-6-7-9------|
e|--0-0000-0-0000------------------|

Verse (2x)
e|---------------------------------|
b|---------------------------------|
g|--1-1111-1-1111-4-4444-4-4444----|  (2x)
d|--2-2222-2-2222-4-4444-4-4444----|
a|--2-2222-2-2222-2-2222-2-2222----|
e|--0-0000-0-0000------------------|

e|------------------------------------------------------------|
b|------------------------------------------------------------|
g|--2-2222-2-2222-1-1111-4-4444-2-2222-2-2222-4-4444-4-4444---|
d|--2-2222-2-2222-2-2222-4-4444-2-2222-2-2222-4-4444-4-4444---|
a|--0-0000-0-0000-2-2222-2-2222-0-0000-0-0000-2-2222-2-2222---|
e|----------------0-0000--------------------------------------|

Chorus
e|-------------------------------------------------------------|
b|--5-5555-----------------------5-5555------------------------|
g|--6-6666-2-2222-1-1111---------6-6666-2-2222-1-1111-4-4-4----|
d|--6-6666-2-2222-2-2222---------6-6666-2-2222-2-2222-4-4-4----|
a|--4-4444-0-0000-2-2222-----2---4-4444-0-0000-2-2222-2-2-2----|
e|----------------0-0000-2/4---0---------------0-0000----------|

e|-------------------------------------------------------------|
b|--5-5555-----------------------------------------------------|
g|--6-6666-2-2222-1-1111---------2-2222-2-2222-1-1111-4-4-4----|
d|--6-6666-2-2222-2-2222---------2-2222-2-2222-2-2222-4-4-4----|
a|--4-4444-0-0000-2-2222-----2---0-0000-0-0000-2-2222-2-2-2----|
e|----------------0-0000-2/4---0---------------0-0000----------|

Intro
e|--0-0000-0-0000------------------|
b|--0-0000-0-0000------------------|
g|--1-1111-1-1111-4-6-9-8-9-11-----|
d|--2-2222-2-2222-x-x-x-x-x-x------|
a|--2-2222-2-2222-2-4-7-6-7-9------|
e|--0-0000-0-0000------------------|

Verse (1x only)
e|---------------------------------|
b|---------------------------------|
g|--1-1111-1-1111-4-4444-4-4444----|
d|--2-2222-2-2222-4-4444-4-4444----|
a|--2-2222-2-2222-2-2222-2-2222----|
e|--0-0000-0-0000------------------|

e|------------------------------------------------------------|
b|------------------------------------------------------------|
g|--2-2222-2-2222-1-1111-4-4444-2-2222-2-2222-4-4444-4-4444---|
d|--2-2222-2-2222-2-2222-4-4444-2-2222-2-2222-4-4444-4-4444---|
a|--0-0000-0-0000-2-2222-2-2222-0-0000-0-0000-2-2222-2-2222---|
e|----------------0-0000--------------------------------------|

Chorus
e|-------------------------------------------------------------|
b|--5-5555-----------------------5-5555------------------------|
g|--6-6666-2-2222-1-1111---------6-6666-2-2222-1-1111-4-4-4----|
d|--6-6666-2-2222-2-2222---------6-6666-2-2222-2-2222-4-4-4----|
a|--4-4444-0-0000-2-2222-----2---4-4444-0-0000-2-2222-2-2-2----|
e|----------------0-0000-2/4---0---------------0-0000----------|

e|-------------------------------------------------------------|
b|--5-5555-----------------------------------------------------|
g|--6-6666-2-2222-1-1111---------2-2222-2-2222-1-1111-4-4-4----|
d|--6-6666-2-2222-2-2222---------2-2222-2-2222-2-2222-4-4-4----|
a|--4-4444-0-0000-2-2222-----2---0-0000-0-0000-2-2222-2-2-2----|
e|----------------0-0000-2/4---0---------------0-0000----------|

Bridge
e|---------------------------------|
b|---------------------------------|
g|--2-2222-2-2222-1-1111-4-4-4-----|  (3x)
d|--2-2222-2-2222-2-2222-4-4-4-----|
a|--0-0000-0-0000-2-2222-2-2-2-----|
e|----------------0-0000-----------|

(electric)

e|---------------------------------|
b|--5-5555-------------------------|
g|--6-6666-2-2222-1-1111-4-4-4-----|  (3x)
d|--6-6666-2-2222-2-2222-4-4-4-----|
a|--4-4444-0-0000-2-2222-2-2-2-----|
e|----------------0-0000-----------|

(accoustic)
e|---------------------------------|
b|---------------------------------|
g|--2-2222-2-2222-1-1111-4-4444----|
d|--2-2222-2-2222-2-2222-4-4444----|
a|--0-0000-0-0000-2-2222-2-2222----|
e|----------------0-0000-----------|


Verse (1x only)
e|---------------------------------|
b|---------------------------------|
g|--1-1111-1-1111-4-4444-4-4444----|
d|--2-2222-2-2222-4-4444-4-4444----|
a|--2-2222-2-2222-2-2222-2-2222----|
e|--0-0000-0-0000------------------|

e|------------------------------------------------------------|
b|------------------------------------------------------------|
g|--2-2222-2-2222-1-1111-4-4444-2-2222-2-2222-4-4444-4-4444---|
d|--2-2222-2-2222-2-2222-4-4444-2-2222-2-2222-4-4444-4-4444---|
a|--0-0000-0-0000-2-2222-2-2222-0-0000-0-0000-2-2222-2-2222---|
e|----------------0-0000--------------------------------------|

e|---------------------------------|
b|---------------------------------|
g|---2-2222-2-2222-4-4444-4-4444---|
d|---2-2222-2-2222-4-4444-4-4444---|   (slowly get louder)
a|---0-0000-0-0000-2-2222-2-2222---|
e|---------------------------------|

Chorus
e|-------------------------------------------------------------|
b|--5----------------------------5-----------------------------|
g|--6------2------1-1111---------6------2------1------4--------|
d|--6------2------2-2222---------6------2------2------4--------|
a|--4------0------2-2222-----2---4------0------2------2--------|
e|----------------0-0000-2/4---0---------------0---------------|

e|-------------------------------------------------------------|
b|--5-5555-----------------------------------------------------|
g|--6-6666-2-2222-1-1111---------2-2222-2-2222-1-1111-4-4444---|
d|--6-6666-2-2222-2-2222---------2-2222-2-2222-2-2222-4-4444---|
a|--4-4444-0-0000-2-2222-----2---0-0000-0-0000-2-2222-2-2222---|
e|----------------0-0000-2/4---0---------------0-0000----------|


Ending Chorus (electric)
e|-----------------------------------------------------------|
b|--5-5555----------------------5-5555-----------------------|
g|--6-6666-2-2222-1-1111-4-4444-6-6666-2-2222-1-1111-4-4-4---|
d|--6-6666-2-2222-2-2222-4-4444-6-6666-2-2222-2-2222-4-4-4---|
a|--4-4444-0-0000-2-2222-2-2222-4-4444-0-0000-2-2222-2-2-2---|
e|----------------0-0000----------------------0-0000---------|

e|----------------------(accoustic here)-----------------------------|
b|--5-5555-----------------------------------------------------------|
g|--6-6666-2-2222-1-1111-4-4444-2-2222-2-2222-1-1111-4-4444-4-4444---|
d|--6-6666-2-2222-2-2222-4-4444-2-2222-2-2222-2-2222-4-4444-4-4444---|
a|--4-4444-0-0000-2-2222-2-2222-0-0000-0-0000-2-2222-2-2222-2-2222---|
e|----------------0-0000----------------------0-0000-----------------|


Intro
e|--0-0000-0-0000------------------|
b|--0-0000-0-0000------------------|
g|--1-1111-1-1111-4-6-9-8-9-11-----|
d|--2-2222-2-2222-x-x-x-x-x-x------|
a|--2-2222-2-2222-2-4-7-6-7-9------|
e|--0-0000-0-0000------------------|


End on
e|------|
b|------|
g|--13--|
d|--x---|
a|--11--|
e|------|

            
            
Suggest correction
Creating personal tab
Creating personal tab
You can edit any tab online and save it as your Personal.

You can edit, replace or remove any tab part or add personal notes – all changes will be seen only by you.

Personal tabs can be accessed anytime from any device, even offline.
Learn more »
Give kudos to tab author, rate the tab!
1 2 3 4 5
comments
print report bad tab
2 comments total.
0 reply
.::*ARBY*::. © 10 Jul 05, 2007 11:25 AM

after dis......

Chorus
e|-------------------------------------------------------------|
b|--5----------------------------5-----------------------------|
g|--6------2------1-1111---------6------2------1------4--------|
d|--6------2------2-2222---------6------2------2------4--------|
a|--4------0------2-2222-----2---4------0------2------2--------|
e|----------------0-0000-2/4---0---------------0---------------|

ders a couple of dead notes aftr it...

0 reply
ChinMusic 82 Nov 13, 2007 04:56 PM

Pieces of the chorus and verse are wrong.

guest
You may want to rate the tab now too:
select rating
Wanna post a correction for this tab? Suggest correction