Oops, an error
Loading. Please wait.

Write You A Song tab

version 4
version 4

Whole song

Interactive

12,635 views 3 this week
1 commentread comment
1 2 3 4 5
x 3
add to favorites
×
Save as Personal and add changes to this tab that will be seen only by you. Learn more ›
×
You can save this tab as Personal to edit and correct it or add notes. All changes will be seen only by you. Learn more »
launch autoscroll
font size
0
reset
how to read this tab
guitar tuner
edit
Autoscroll
slow
fast
+/-
esc
set tempo
stop
Author
-------------------------------------------------------------------------------
                         Write You A Song - Plain White Ts
-------------------------------------------------------------------------------
Tabbed by: Kyle Mogilev
Email: switchblade333@gmail.com

Tuning: Normal
Time Signature: 3/4

I couldn't find a very accurate tab of this song, so I decided to make one that fixes 
all of the mistakes that I've seen in others. I made this tab as accurate as possible. If you 
have any questions, feel free to email me.

+: Beats
-: Off-Beats

***About the Electric Guitar part: The *** in each measure means repeat the triad 
before it. Each triad is played as a triplet, with each starting on the beat. If you don't 
understand, just listen to the song, and you'll find the rhythm easily.


Intro

  E
  + - + - + -  + - + - + -  + - + - + -  + - + - + -
e|----0--00--0|----0--00--0|------------|------------|
B|----0--00--0|----0--00--0|------------|------------|
G|----1--11--1|----1--11--1|4---6---9---|8---9---11--|
D|2---2--22--2|2---2--22--2|------------|------------|
A|2---2--22--2|2---2--22--2|2---4---7---|6---7---9---|
E|0---0--00--0|0---0--00--0|------------|------------|
                                               I don't

Verse:

  E                         B
  + - + - + -  + - + - + -  + - + - + -  + - + - + -
e|----0--00--0|----0--00--0|------------|------------|
B|----0--00--0|----0--00--0|----4--44--4|----4--44--4|
G|----1--11--1|----1--11--1|4---4--44--4|4---4--44--4|
D|2---2--22--2|2---2--22--2|4---4--44--4|4---4--44--4|
A|2---2--22--2|2---2--22--2|2---2--22--2|2---2--22--2|
E|0---0--00--0|0---0--00--0|------------|------------|
  know...                                       I got
  give you...                                    if I

  E                         B
  + - + - + -  + - + - + -  + - + - + -  + - + - + -
e|----0--00--0|----0--00--0|------------|------------|
B|----0--00--0|----0--00--0|----4--44--4|----4--44--4|
G|----1--11--1|----1--11--1|4---4--44--4|4---4--44--4|
D|2---2--22--2|2---2--22--2|4---4--44--4|4---4--44--4|
A|2---2--22--2|2---2--22--2|2---2--22--2|2---2--22--2|
E|0---0--00--0|0---0--00--0|------------|------------|
  debts....                                     I can't
  could...                                     I'd be

  A                         E            C#m
  + - + - + -  + - + - + -  + - + - + -  + - + - + -
e|------------|------------|----0--00--0|----4--44--4|
B|----2--22--2|----2--22--2|----0--00--0|----5--55--5|
G|2---2--22--2|2---2--22--2|----1--11--1|6---6--66--6|
D|2---2--22--2|2---2--22--2|2---2--22--2|6---6--66--6|
A|0---0--00--0|0---0--00--0|2---2--22--2|4---4--44--4|
E|------------|------------|0---0--00--0|------------|
  buy...                    big diamond...           but
 out there...               hammerin' away...

  A                         B
  + - + - + -  + - + - + -  + - + - + -  + - + - + -
e|------------|------------|------------|------------|
B|----2--22--2|----2--22--2|----4--44--4|4---4---4---|
G|2---2--22--2|2---2--22--2|4---4--44--4|4---4---4---|
D|2---2--22--2|2---2--22--2|4---4--44--4|4---4---4---|
A|0---0--00--0|0---0--00--0|2---2--22--2|2---2---2---|
E|------------|------------|------------|------------|
  that don't...                                 I can't
  make us...

Repeat once for the second part of the verse

1st Verse Lyrics:

        E                          B
I don't know how to make lots of money

      E                         B
I got debts that I'm trying to pay

        A                         E            C#m
I can't buy you nice things, like big diamond rings

    A                        B
But that don't mean much anyway

        E                                B
I can't give you the house you've been dreaming

     E                        B
If I could I would build it alone

        A                      E           C#m
I'd be out there all day, just hammerin' away

   A                       B
To make us a place of our own


Chorus


  C#m          A            E
  + - + - + -  + - + - + -  + - + - + -  + - + - + -
e|4---4--44--4|0---0--00--0|0---0--00--0|------------|
B|5---5--55--5|2---2--22--2|0---0--00--0|------------|
G|6---6--66--6|2---2--22--2|1---1--11--1|------------|
D|6---6--66--6|2---2--22--2|2---2--22--2|------------|
A|4---4--44--4|0---0--00--0|2---2--22--2|----2-------|
E|------------|------------|0---0--00--0|2h4-----0---|
  I will write...

  C#m          A            E            B
  + - + - + -  + - + - + -  + - + - + -  + - + - + -
e|4---4--44--4|0---0--00--0|0---0--00--0|2---2---2---|
B|5---5--55--5|2---2--22--2|0---0--00--0|4---4---4---|
G|6---6--66--6|2---2--22--2|1---1--11--1|4---4---4---|
D|6---6--66--6|2---2--22--2|2---2--22--2|4---4---4---|
A|4---4--44--4|0---0--00--0|2---2--22--2|2---2---2---|
E|------------|------------|0---0--00--0|------------|
  that's how you'll...

  C#m          A            E
  + - + - + -  + - + - + -  + - + - + -  + - + - + -
e|4---4--44--4|0---0--00--0|0---0--00--0|------------|
B|5---5--55--5|2---2--22--2|0---0--00--0|------------|
G|6---6--66--6|2---2--22--2|1---1--11--1|------------|
D|6---6--66--6|2---2--22--2|2---2--22--2|------------|
A|4---4--44--4|0---0--00--0|2---2--22--2|----2-------|
E|------------|------------|0---0--00--0|2h4-----0---|
  I will write...                            and you'll

  F#m                         E            B
  + - + - + -  + - + - + -  + - + - + -  + - + - + -
e|2---2--22--2|2---2--22--2|0---0--00--0|2---2--22--2|
B|2---2--22--2|2---2--22--2|0---0--00--0|4---4--44--4|
G|2---2--22--2|2---2--22--2|1---1--11--1|4---4--44--4|
D|4---4--44--4|4---4--44--4|2---2--22--2|4---4--44--4|
A|4---4--44--4|4---4--44--4|2---2--22--2|2---2--22--2|
E|2---2--22--2|2---2--22--2|0---0--00--0|------------|
  know from this...


Chorus Ending/Pre-Verse

  E
  + - + - + -  + - + - + -  + - + - + -  + - + - + -
e|----0--00--0|----0--00--0|------------|------------|
B|----0--00--0|----0--00--0|------------|------------|
G|----1--11--1|----1--11--1|4---6---9---|8---9---11--|
D|2---2--22--2|2---2--22--2|------------|------------|
A|2---2--22--2|2---2--22--2|2---4---7---|6---7---9---|
E|0---0--00--0|0---0--00--0|------------|------------|
                                               I don't

Chorus Lyrics:

C#m      A          E
I will write you a song

C#m                 A           E               B
That's how you'll know that my love is still strong

C#m      A          E
I will write you a song
             F#m                       E            B           E
And you'll know from this song that I just can't go on without you


2nd Verse:


  E                         B
  + - + - + -  + - + - + -  + - + - + -  + - + - + -
e|----0--00--0|----0--00--0|------------|------------|
B|----0--00--0|----0--00--0|----4--44--4|----4--44--4|
G|----1--11--1|----1--11--1|4---4--44--4|4---4--44--4|
D|2---2--22--2|2---2--22--2|4---4--44--4|4---4--44--4|
A|2---2--22--2|2---2--22--2|2---2--22--2|2---2--22--2|
E|0---0--00--0|0---0--00--0|------------|------------|
  know...                                       I don't

  E                         B
  + - + - + -  + - + - + -  + - + - + -  + - + - + -
e|----0--00--0|----0--00--0|------------|------------|
B|----0--00--0|----0--00--0|----4--44--4|----4--44--4|
G|----1--11--1|----1--11--1|4---4--44--4|4---4--44--4|
D|2---2--22--2|2---2--22--2|4---4--44--4|4---4--44--4|
A|2---2--22--2|2---2--22--2|2---2--22--2|2---2--22--2|
E|0---0--00--0|0---0--00--0|------------|------------|
  believe in being....                         I don't

  A                         E            C#m
  + - + - + -  + - + - + -  + - + - + -  + - + - + -
e|------------|------------|----0--00--0|----4--44--4|
B|----2--22--2|----2--22--2|----0--00--0|----5--55--5|
G|2---2--22--2|2---2--22--2|----1--11--1|6---6--66--6|
D|2---2--22--2|2---2--22--2|2---2--22--2|6---6--66--6|
A|0---0--00--0|0---0--00--0|2---2--22--2|4---4--44--4|
E|------------|------------|0---0--00--0|------------|
  know how to fight...      draw blood...           if

  A                         B
  + - + - + -  + - + - + -  + - + - + -  + - + - + -
e|------------|------------|------------|------------|
B|----2--22--2|----2--22--2|----4--44--4|4---4---4---|
G|2---2--22--2|2---2--22--2|4---4--44--4|4---4---4---|
D|2---2--22--2|2---2--22--2|4---4--44--4|4---4---4---|
A|0---0--00--0|0---0--00--0|2---2--22--2|2---2---2---|
E|------------|------------|------------|------------|
  somebody tries...

2nd Verse Lyrics:

        E                           B
I don't know that I'd make a good soldier

          E                            B
I don't believe in being violent and cruel

        A                            E             C#m
I don't know how to fight, but I'll draw blood tonight

   A                       B
If somebody tries hurting you


Chorus: Same as before, but do not play "Chorus Ending/Pre-Verse". Go directly into the 
Bridge instead.


Bridge: After 12 measures, an electric guitar comes in. The rhythm of the electric 
guitar's strumming is in triplets.

  A            A            E            B
  + - + - + -  + - + - + -  + - + - + -  + - + - + -
e|0---0--00--0|0---0--00--0|0---0--00--0|2---2---2---|
B|2---2--22--2|2---2--22--2|0---0--00--0|4---4---4---|
G|2---2--22--2|2---2--22--2|1---1--11--1|4---4---4---|
D|2---2--22--2|2---2--22--2|2---2--22--2|4---4---4---|
A|0---0--00--0|0---0--00--0|2---2--22--2|2---2---2---|
E|------------|------------|0---0--00--0|------------|
               Now that it's...

  A            A            E            B
  + - + - + -  + - + - + -  + - + - + -  + - + - + -
e|0---0--00--0|0---0--00--0|0---0--00--0|2---2---2---|
B|2---2--22--2|2---2--22--2|0---0--00--0|4---4---4---|
G|2---2--22--2|2---2--22--2|1---1--11--1|4---4---4---|
D|2---2--22--2|2---2--22--2|2---2--22--2|4---4---4---|
A|0---0--00--0|0---0--00--0|2---2--22--2|2---2---2---|
E|------------|------------|0---0--00--0|------------|
               Both of us knew...

  A            A            E            B
  + - + - + -  + - + - + -  + - + - + -  + - + - + -
e|0---0--00--0|0---0--00--0|0---0--00--0|2---2---2---|
B|2---2--22--2|2---2--22--2|0---0--00--0|4---4---4---|
G|2---2--22--2|2---2--22--2|1---1--11--1|4---4---4---|
D|2---2--22--2|2---2--22--2|2---2--22--2|4---4---4---|
A|0---0--00--0|0---0--00--0|2---2--22--2|2---2---2---|
E|------------|------------|0---0--00--0|------------|
               I've got your...


Rhythm Guitar
  C#m          A            E
  + - + - + -  + - + - + -  + - + - + -  + - + - + -
e|4---4--44--4|0---0--00--0|0---0--00--0|0---0---0---|
B|5---5--55--5|2---2--22--2|0---0--00--0|0---0---0---|
G|6---6--66--6|2---2--22--2|1---1--11--1|1---1---1---|
D|6---6--66--6|2---2--22--2|2---2--22--2|2---2---2---|
A|4---4--44--4|0---0--00--0|2---2--22--2|2---2---2---|
E|------------|------------|0---0--00--0|0---0---0---|
  song...


Electric Guitar
  + - + - + -  + - + - + -  + - + - + -  + - + - + -
e|9**-9**-9**-|9-**9-**9-**|12**12**12**|12**12**12**|
B|9**-9**-9**-|10**10**10**|9-**9-**9-**|9-**9-**9-**|
G|9**-9**-9**-|9-**9-**9-**|9-**9-**9-**|9-**9-**9-**|
D|------------|------------|------------|------------|
A|------------|------------|------------|------------|
E|------------|------------|------------|------------|


Rhythm Guitar
  C#m          A            E            B
  + - + - + -  + - + - + -  + - + - + -  + - + - + -
e|4---4--44--4|0---0--00--0|0---0--00--0|2---2---2---|
B|5---5--55--5|2---2--22--2|0---0--00--0|4---4---4---|
G|6---6--66--6|2---2--22--2|1---1--11--1|4---4---4---|
D|6---6--66--6|2---2--22--2|2---2--22--2|4---4---4---|
A|4---4--44--4|0---0--00--0|2---2--22--2|2---2---2---|
E|------------|------------|0---0--00--0|------------|


Electric Guitar
  + - + - + -  + - + - + -  + - + - + -  + - + - + -
e|9**-9**-9**-|9-**9-**9-**|12**12**12**|7**-7**-7**-|
B|9**-9**-9**-|10**10**10**|9-**9-**9-**|9**-9**-9**-|
G|9**-9**-9**-|9-**9-**9-**|9-**9-**9-**|9**-9**-9**-|
D|------------|------------|------------|------------|
A|------------|------------|------------|------------|
E|------------|------------|------------|------------|


Rhythm Guitar
  C#m          A            E
  + - + - + -  + - + - + -  + - + - + -  + - + - + -
e|4---4--44--4|0---0--00--0|0---0--00--0|0---0---0---|
B|5---5--55--5|2---2--22--2|0---0--00--0|0---0---0---|
G|6---6--66--6|2---2--22--2|1---1--11--1|1---1---1---|
D|6---6--66--6|2---2--22--2|2---2--22--2|2---2---2---|
A|4---4--44--4|0---0--00--0|2---2--22--2|2---2---2---|
E|------------|------------|0---0--00--0|0---0---0---|


Electric Guitar
  + - + - + -  + - + - + -  + - + - + -  + - + - + -
e|9**-9**-9**-|9-**9-**9-**|12**12**12**|12**12**12**|
B|9**-9**-9**-|10**10**10**|9-**9-**9-**|9-**9-**9-**|
G|9**-9**-9**-|9-**9-**9-**|9-**9-**9-**|9-**9-**9-**|
D|------------|------------|------------|------------|
A|------------|------------|------------|------------|
E|------------|------------|------------|------------|


Bridge Ending/ Pre-Verse

Rhythm Guitar
  F#m                         E            B
  + - + - + -  + - + - + -  + - + - + -  + - + - + -
e|2---2--22--2|2---2--22--2|0---0--00--0|2---2--22--2|
B|2---2--22--2|2---2--22--2|0---0--00--0|4---4--44--4|
G|2---2--22--2|2---2--22--2|1---1--11--1|4---4--44--4|
D|4---4--44--4|4---4--44--4|2---2--22--2|4---4--44--4|
A|4---4--44--4|4---4--44--4|2---2--22--2|2---2--22--2|
E|2---2--22--2|2---2--22--2|0---0--00--0|------------|
                                               I don't

Electric Guitar
  + - + - + -  + - + - + -  + - + - + -  + - + - + -  +
e|------------|0-----------|------------|--------0---|0
B|--------0---|----0-------|------------|----4-------|
G|----2-------|--------2---|----1---4---|4-----------|
D|4-----------|------------|------------|------------|
A|------------|------------|------------|------------|
E|------------|------------|------------|------------|

3rd Verse: Electric guitar lets the high e string ring at the start of this verse.

  E                         B
  + - + - + -  + - + - + -  + - + - + -  + - + - + -
e|----0--00--0|----0--00--0|------------|------------|
B|----0--00--0|----0--00--0|----4--44--4|----4--44--4|
G|----1--11--1|----1--11--1|4---4--44--4|4---4--44--4|
D|2---2--22--2|2---2--22--2|4---4--44--4|4---4--44--4|
A|2---2--22--2|2---2--22--2|2---2--22--2|2---2--22--2|
E|0---0--00--0|0---0--00--0|------------|------------|
  know...                                       I don't

  E                         B
  + - + - + -  + - + - + -  + - + - + -  + - + - + -
e|----0--00--0|----0--00--0|------------|------------|
B|----0--00--0|----0--00--0|----4--44--4|----4--44--4|
G|----1--11--1|----1--11--1|4---4--44--4|4---4--44--4|
D|2---2--22--2|2---2--22--2|4---4--44--4|4---4--44--4|
A|2---2--22--2|2---2--22--2|2---2--22--2|2---2--22--2|
E|0---0--00--0|0---0--00--0|------------|------------|
  know all the right....                       I can't

  A                         E            C#m
  + - + - + -  + - + - + -  + - + - + -  + - + - + -
e|------------|------------|----0--00--0|----4--44--4|
B|----2--22--2|----2--22--2|----0--00--0|----5--55--5|
G|2---2--22--2|2---2--22--2|----1--11--1|6---6--66--6|
D|2---2--22--2|2---2--22--2|2---2--22--2|6---6--66--6|
A|0---0--00--0|0---0--00--0|2---2--22--2|4---4--44--4|
E|------------|------------|0---0--00--0|------------|
  say where...              one thing...

  A                         B
  + - + - + -  + - + - + -  + - + - + -  + - + - + -
e|------------|------------|------------|------------|
B|----2--22--2|----2--22--2|----4--44--4|4---4---4---|
G|2---2--22--2|2---2--22--2|4---4--44--4|4---4---4---|
D|2---2--22--2|2---2--22--2|4---4--44--4|4---4---4---|
A|0---0--00--0|0---0--00--0|2---2--22--2|2---2---2---|
E|------------|------------|------------|------------|
  how to be a good man...

  A                         B
  + - + - + -  + - + - + -  + - + - + -  + - + - + -
e|------------|------------|------------|------------|
B|----2--22--2|----2--22--2|----4--44--4|4--44--44--4|
G|2---2--22--2|2---2--22--2|4---4--44--4|4--44--44--4|
D|2---2--22--2|2---2--22--2|4---4--44--4|4--44--44--4|
A|0---0--00--0|0---0--00--0|2---2--22--2|2--22--22--2|
E|------------|------------|------------|------------|
  And 'till I die...


Chorus: Same lyrics, just follow tabs below. The electric guitar comes in halfway through:


  C#m          A            E
  + - + - + -  + - + - + -  + - + - + -  + - + - + -
e|4-----------|0-----------|0---0--00--0|------------|
B|5-----------|2-----------|0---0--00--0|------------|
G|6-----------|2-----------|1---1--11--1|------------|
D|6-----------|2-----------|2---2--22--2|------------|
A|4-----------|0-----------|2---2--22--2|----2-------|
E|------------|------------|0---0--00--0|2h4-----0---|
  I will write...

  C#m          A            E            B
  + - + - + -  + - + - + -  + - + - + -  + - + - + -
e|4-----------|0-----------|0-----------|x--x---x---x|
B|5-----------|2-----------|0-----------|x--x---x---x|
G|6-----------|2-----------|1-----------|x--x---x---x|
D|6-----------|2-----------|2-----------|x--x---x---x|
A|4-----------|0-----------|2-----------|x--x---x---x|
E|------------|------------|0-----------|x--x---x---x|
  that's how you'll...

  C#m          A            E
  + - + - + -  + - + - + -  + - + - + -  + - + - + -
e|4---4--44--4|0---0--00--0|0---0--00--0|------------|
B|5---5--55--5|2---2--22--2|0---0--00--0|------------|
G|6---6--66--6|2---2--22--2|1---1--11--1|------------|
D|6---6--66--6|2---2--22--2|2---2--22--2|------------|
A|4---4--44--4|0---0--00--0|2---2--22--2|----2-------|
E|------------|------------|0---0--00--0|2h4-----0---|
  I will write...                            and you'll

  F#m                         E            B
  + - + - + -  + - + - + -  + - + - + -  + - + - + -
e|2---2--22--2|2---2--22--2|0---0--00--0|2---2--22--2|
B|2---2--22--2|2---2--22--2|0---0--00--0|4---4--44--4|
G|2---2--22--2|2---2--22--2|1---1--11--1|4---4--44--4|
D|4---4--44--4|4---4--44--4|2---2--22--2|4---4--44--4|
A|4---4--44--4|4---4--44--4|2---2--22--2|2---2--22--2|
E|2---2--22--2|2---2--22--2|0---0--00--0|------------|
  know from this...


Rhythm Guitar
  C#m          A            E
  + - + - + -  + - + - + -  + - + - + -  + - + - + -
e|4---4--44--4|0---0--00--0|0---0--00--0|0---0--00--0|
B|5---5--55--5|2---2--22--2|0---0--00--0|0---0--00--0|
G|6---6--66--6|2---2--22--2|1---1--11--1|1---1--11--1|
D|6---6--66--6|2---2--22--2|2---2--22--2|2---2--22--2|
A|4---4--44--4|0---0--00--0|2---2--22--2|2---2--22--2|
E|------------|------------|0---0--00--0|0---0--00--0|
  I will write...

Electric Guitar
  + - + - + -  + - + - + -  + - + - + -  + - + - + -
e|9**-9**-9**-|9-**9-**9-**|12**12**12**|12**12**12**|
B|9**-9**-9**-|10**10**10**|9-**9-**9-**|9-**9-**9-**|
G|9**-9**-9**-|9-**9-**9-**|9-**9-**9-**|9-**9-**9-**|
D|------------|------------|------------|------------|
A|------------|------------|------------|------------|
E|------------|------------|------------|------------|


Rhythm Guitar
  C#m          A            E            B
  + - + - + -  + - + - + -  + - + - + -  + - + - + -
e|4---4--44--4|0---0--00--0|0---0--00--0|2---2---2---|
B|5---5--55--5|2---2--22--2|0---0--00--0|4---4---4---|
G|6---6--66--6|2---2--22--2|1---1--11--1|4---4---4---|
D|6---6--66--6|2---2--22--2|2---2--22--2|4---4---4---|
A|4---4--44--4|0---0--00--0|2---2--22--2|2---2---2---|
E|------------|------------|0---0--00--0|------------|
  that's how you'll...

Electric Guitar
  + - + - + -  + - + - + -  + - + - + -  + - + - + -
e|9**-9**-9**-|9-**9-**9-**|12**12**12**|7**-7**-7**-|
B|9**-9**-9**-|10**10**10**|9-**9-**9-**|9**-9**-9**-|
G|9**-9**-9**-|9-**9-**9-**|9-**9-**9-**|9**-9**-9**-|
D|------------|------------|------------|------------|
A|------------|------------|------------|------------|
E|------------|------------|------------|------------|

Rhythm Guitar
  C#m          A            E
  + - + - + -  + - + - + -  + - + - + -  + - + - + -
e|4---4--44--4|0---0--00--0|0---0--00--0|0---0--00--0|
B|5---5--55--5|2---2--22--2|0---0--00--0|0---0--00--0|
G|6---6--66--6|2---2--22--2|1---1--11--1|1---1--11--1|
D|6---6--66--6|2---2--22--2|2---2--22--2|2---2--22--2|
A|4---4--44--4|0---0--00--0|2---2--22--2|2---2--22--2|
E|------------|------------|0---0--00--0|0---0--00--0|
  I will write...                            and you'll

Electric Guitar
  + - + - + -  + - + - + -  + - + - + -  + - + - + -
e|9**-9**-9**-|9-**9-**9-**|12**12**12**|12**12**12**|
B|9**-9**-9**-|10**10**10**|9-**9-**9-**|9-**9-**9-**|
G|9**-9**-9**-|9-**9-**9-**|9-**9-**9-**|9-**9-**9-**|
D|------------|------------|------------|------------|
A|------------|------------|------------|------------|
E|------------|------------|------------|------------|


Rhythm Guitar
  F#m                         E            B
  + - + - + -  + - + - + -  + - + - + -  + - + - + -  + - + - + -
e|2---2--22--2|2---2--22--2|0---0--00--0|2---2--22--2|2---2--22--2|
B|2---2--22--2|2---2--22--2|0---0--00--0|4---4--44--4|4---4--44--4|
G|2---2--22--2|2---2--22--2|1---1--11--1|4---4--44--4|4---4--44--4|
D|4---4--44--4|4---4--44--4|2---2--22--2|4---4--44--4|4---4--44--4|
A|4---4--44--4|4---4--44--4|2---2--22--2|2---2--22--2|2---2--22--2|
E|2---2--22--2|2---2--22--2|0---0--00--0|------------|------------|
  know from this...                                       without you..


Electric Guitar
  + - + - + -  + - + - + -  + - + - + -  + - + - + -  + - + - + -  +
e|------------|0-----------|------------|--------0---|--------0---|12
B|--------0---|----0-------|------------|----4-------|----4-------|
G|----2-------|--------2---|----1---4---|4-----------|3h4---------|
D|4-----------|------------|------------|------------|------------|
A|------------|------------|------------|------------|------------|
E|------------|------------|------------|------------|------------|

Ending: electric Guitar lets the high e string ring on the 12th fret while the rhythm 
guitar finishes the song.

  E
  + - + - + -  + - + - + -  + - + - + -  + - + - + -  + - + - + -
e|----0--00--0|----0--00--0|------------|------------|------------|
B|----0--00--0|----0--00--0|------------|------------|------------|
G|----1--11--1|----1--11--1|4---6---9---|8---9---11--|------------|
D|2---2--22--2|2---2--22--2|------------|------------|2-----------|
A|2---2--22--2|2---2--22--2|2---4---7---|6---7---9---|2-----------|
E|0---0--00--0|0---0--00--0|------------|------------|0-----------|



| /  slide up
| \  slide down
| h  hammer-on
| p  pull-off
| ~  vibrato
| +  harmonic
| x  Mute note
===============================================================================

            
            
Suggest correction
Creating personal tab
Creating personal tab
You can edit any tab online and save it as your Personal.

You can edit, replace or remove any tab part or add personal notes – all changes will be seen only by you.

Personal tabs can be accessed anytime from any device, even offline.
Learn more »
Give kudos to tab author, rate the tab!
1 2 3 4 5
comments
print report bad tab
1 comment total.
0 reply
Guitarfreak809 80 Nov 19, 2008 03:30 PM

That was great!!! I love it!! NICE JOB

guest
You may want to rate the tab now too:
select rating
Wanna post a correction for this tab? Suggest correction